Theory Of A Deadman - Say Goodbye Chords & Tabs

 

Say Goodbye Chords & Tabs

Theory Of A Deadman Chords & Tabs

Version: 1 Type: Tab 0 ratings
1 star 2 stars 3 stars 4 stars 5 stars
comments

Say Goodbye Tab

   
			     SAY GOODBYE - THEORY OF A DEADMAN
-------------------------------------------------------------------------------
Tabbed by:brandonbray2002
Email:skandiamusicman@aol.com

this is a great new song from TOADM, its in drop c
Tuning:CGCFAD


these are the openning chords
x    x    x
3    2    8
2    2    7
0    0    5   not to sure if these are spot on but there close!!
0    0    5
0    3    5

  when I tab chords i dont tab the number of times there played, just the changes from
 chord to chord

 (intro) this openning part isnt quite right, but you get the idea!!
|------------------------------------------------------------------------------------|
|--------3-----3--------3-----3------------------------------------------------------|
|------2---2----------2---2----------7-----7-------7---------------------------------|
|----0-------0------0-------0------5---5---------5-----------------------------------|
|--------------------------------5-------5-----5-----5-------------------------------|
|--0--------------3-------------5------------5----------4/5--------------------------|

|-----------------------------------------------------------------------------------|
|--------3-----3--------3-----3--8--------------------------------------------------|
|------2---2----------2---2------7--------------------------------------------------|
|----0-------0------0-------0----5--------------------------------------------------|
|--------------------------------5--------------------------------------------------|
|--0--------------3--------------5--------------------------------------------------|

(verse same as intro)      "she said dont leave this up to me to say"

|------------------------------------------------------------------------------------|
|--------3-----3--------3-----3------------------------------------------------------|
|------2---2----------2---2----------7-----7-------7---------------------------------|
|----0-------0------0-------0------5---5---------5-----------------------------------|
|--------------------------------5-------5-----5-----5-------------------------------|
|--0--------------3-------------5------------5----------4/5--------------------------|

|------------------------------------------------------------------------------------|
|--------3-----3--------3-----3------------------------------------------------------|
|------2---2----------2---2----------7-----7-------7---------------------------------|
|----0-------0------0-------0------5---5---------5-----------------------------------|
|--------------------------------5-------5-----5-----5-------------------------------|
|--0--------------3-------------5------------5---------------------------------------|

(intro to chorus)clean tone     "cause these good times will never last"
|-------------------------------------------------------------------------------------|
|-11--------8------11-----------------------------------------------------------------|
|-1o--------7------10-----------------------------------------------------------------|
|-8--10-----5------8------------------------------------------------------------------|
|-8--10-----5------8------------------------------------------------------------------|
|-8--10-----5------8------------------------------------------------------------------|

  (chorus) distorted  "no, will anything change your mind"
|--------------------------------------------------------------------------|
|---3------------------3------------ 3---13--12--11--------3---------------|
|---2---3--------------2--3----------2---12--11--10--------2---------------|
|---0---3--5-----------0--3-5--------0---10--9---8-----3---0------------| -|
|---0---5--5---^-------0--5-5----^---0---10--9---8-----3---0---------------|
|---0------5--3-3------0----5---3-3- 0---10--9---8-----3---0---------------|

|----------------------------------------------------------------------------------|
|-3--------------------------------------------------------------------------------|
|-2---5----------------------------------------------------------------------------|
|-0---5---5--3-2-------------------------------------------------------------------|
|-0---3---5--3-2-------------------------------------------------------------------|
|-0-------5--3-2-------------------------------------------------------------------|
[ Tab from: http://www.guitartabs.cc/tabs/t/theory_of_a_deadman/say_goodbye_tab.html ]
(verse_    " next time ill take it slow"
|----------------------------------------------------------------------------------------|
|--------3-----3--------3-----3----------------------------------------------------------|
|------2---2----------2---2----------7-----7-------7-------------------------------------|
|----0-------0------0-------0------5---5---------5--------------repeat-------------------|
|--------------------------------5-------5-----5-----5-----------------------------------|
|--0--------------3-------------5------------5----------4/5------------------------------|


(intro to chorus)clean tone     "cause these good times will never last"
|-------------------------------------------------------------------------------------|
|-11--------8------11-----------------------------------------------------------------|
|-1o--------7------10-----------------------------------------------------------------|
|-8--10-----5------8------------------------------------------------------------------|
|-8--10-----5------8------------------------------------------------------------------|
|-8--10-----5------8------------------------------------------------------------------|


  (chorus) distorted  "no!, will anything change your mind"
|--------------------------------------------------------------------------|
|---3------------------3------------ 3---13--12--11--------3---------------|
|---2---3--------------2--3----------2---12--11--10--------2---------------|
|---0---3--5-----------0--3-5--------0---10--9---8-----3---0------------| -|
|-^-0---5--5---^-------0--5-5----^---0---10--9---8-----3---0---------------|
|3--0------5--3-3---0--0----5---3-3- 0---10--9---8-----3---0---------------|

|----------------------------------------------------------------------------------|
|-3--------------------------------------------------------------------------------|
|-2---5----------------------------------------------------------------------------|
|-0---5---5--3-2-------------------------------------------------------------------|
|-0---3---5--3-2-------------------------------------------------------------------|
|-0-------5--3-2-------------------------------------------------------------------|

(interlude)
|----------------------------------------------------------|
|----------------------------------------------------------|
|--------7---------------------7---------------------------|
|-0---------------3---5----0-----------3--10---------------|
|-0---------5-----3---5----0-----5-----3--10--repeat this--|
|-0-0-------0-0---3---5----0-0---0--0--3--10---------------|


(intro to instrument break)dirty tone     "cause these good times will never last"
|----------------------------------------------------------------------------------------|
|-11--------8------11--------------------------------------------------------------------|
|-1o--------7------10--------------------------------------------------------------------|
|-8---0-----5------8---0----5---7--8--10-------------------------------------------------|
|-8---0-----5------8---0----5---7--8--10-------------------------------------------------|
|-8---0-----5------8---0----5---7--8--10-------------------------------------------------|

(instraments drop out)
   "will anything change your mind,one way ticket was a preaty good sighn"
|---------------------------------------------------------------------------|
|---------------------------------------------------------------------------|
|---------------------------------------------------------------------------|
|---------------------------------------------------------------------------|
|---------------------------------------------------------------------------|
|---------------------------------------------------------------------------|


  (chorus) distorted  "say goodbye"
|---------------------------------------------|
|------3---13--12-11----------3---------------|
|------2---12--11-10----------2--5------------|
|------0---10--9--8---3--0----0--5---5--3--2--|
|--^---0---10--9--8---3--0----0--3---5--3--2--|
|-3-3--0---10--9--8---3--0----0------5--3--2--|


|----------------------------------------------------------------------------------------|
|----------------------------------------------------------------------------------------|
|--------7---------------------7---------------------------------------------------------|
|-0-0-------------3---5----------------3--10---------------------------------------------|
|-0-0-------5-----3---5----------5-----3--10---------------------------------------------|
|-0-0-------0-0---3---5----0-0---0--0--3--10---------------------------------------------|


 I didnt write this song it was written by theory of a deadman, i just trascribed it, and yes
 all by ear. if you have comments or corrections please feel free to write!

keep ROCKING!!!!!!!


| /  slide up
| \  slide down
| h  hammer-on
| p  pull-off
| ~  vibrato
| +  harmonic
| x  Mute note
===============================================================================
Comments