Theory Of A Deadman - Santa Monica Chords & Tabs

 

Santa Monica Chords & Tabs

Theory Of A Deadman Chords & Tabs

Version: 1 Type: Tab 0 ratings
1 star 2 stars 3 stars 4 stars 5 stars
comments

Santa Monica Tab

   
Theory of a Deadman
Santa Monica
Tabbed by Myself
Standard Tuning

Listen for the strumming, It isn't hard to figure out.
The chords over the lyrics are just a guideline, they aren't perfect


CHORDS:
|-0-|-3-|-0-|--3--|--0--|--0--|--0---|--0--|-0-|
|-0-|-3-|-3-|--3--|--0--|--0--|--0---|--0--|-1-|
|-0-|-0-|-2-|--0--|--4--|--x--|--7---|--5--|-0-|
|-2-|-0-|-0-|--2--|--4--|--5--|--7---|--5--|-2-|
|-2-|-2-|---|--3--|--2--|--5--|--5---|--3--|-3-|
|-0-|-3-|---|-----|-----|--3--|------|-----|---|
 Em   G   D  Cadd9 Bsus4 Gadd6 D6sus2 Cmaj7  C


-INTRO-

--------------0-|--------------3-----|
--12----------0-|--12----------3-----|
-----12---7---0-|-----12---7---0-----|
--------7-----2-|--------7-----0-----|
--------------2-|--------------2-----|
--------------0-|--------------3-----|
  *  *  * *        *  *  * *

--------------2-|--------------3-----|
--12----------3-|--12----------3-----|
-----12---7---2-|-----12---7---0-----|
--------7-----0-|--------7-----2-----|
--------------0-|--------------3-----|
----------------|--------------------|
  *  *  * *        *  *  * *

-VERSE-

Em              Bsus4        Gadd6         D6sus2          Cmaj7
   She fills my bed with gasoline,     You think I wouldn't notice
Em                 Bsus4              Gadd6      D6sus2             Cmaj7         Em
   Her mind's made up, her love is gone, I think someone's trying to show us a sign
          Bsus                    Gadd9    D6sus2       Cmaj7
That even if we thought it would last, the moment would pass
Em              Bsus4                    Gadd6       D6sus2   Cmaj7
  My bones will break and my heart would give, Oh it hurts to live


-CHORUS- - Strum chords noted, over lead line.
         - Harmonics from the intro are also overdubbed in chorus, listen

 Em                G                 D                 Cadd9
-----------------|-----------------|-----------------|-----------------|
-----3-------3---|-----3-------3---|-----3-------3---|-----3-------3---|
---4---4---4---4-|---4---4---4---4-|---4---4---4---4-|---4---4---4---4-|
-----------------|-----------------|-----------------|-----------------|
-----------------|-----------------|-----------------|-----------------|
-----------------|-----------------|-----------------|-----------------|


-POST CHORUS-

-0--------------|-3-|-12*-|
-0-12-----------|-3-|-12*-|
-0----12---7----|-0-|-12*-|
-2-------7------|-0-|-----|
-2--------------|-2-|-----|
-0--------------|-3-|-----|
   *  *  * *
[ Tab from: http://www.guitartabs.cc/tabs/t/theory_of_a_deadman/santa_monica_tab.html ]
-VERSE-
It hurts to breathe well every time that you're not next to me
Her mind's made up the girl is gone And now I'm forced to see
I think I'm on my way Oh, it hurts to live today
Oh and she says "Don't you wish you were dead like me?"


-CHORUS- - Strum chords noted, over lead line.
         - Harmonics from the intro are also overdubbed in chorus, listen

 Em                G                 D                 Cadd9
-----------------|-----------------|-----------------|-----------------|
-----3-------3---|-----3-------3---|-----3-------3---|-----3-------3---|
---4---4---4---4-|---4---4---4---4-|---4---4---4---4-|---4---4---4---4-|
-----------------|-----------------|-----------------|-----------------|
-----------------|-----------------|-----------------|-----------------|
-----------------|-----------------|-----------------|-----------------|


-BRIDGE- Play 4 times, then ring the last note into a quiet chorus
----------------------------|---------------------------------||-----|
----------------------------|---------------------------------||-----|
----------------------------|-----------------------7-7-7-----||-----|
-2-2-2--4-4-4--5-5-5--7-7-7-|--2-2-2--4-4-4--5-5-5--7-7-7---x4||-2~--|
-2-2-2--4-4-4--5-5-5--7-7-7-|--2-2-2--4-4-4--5-5-5--5-5-5-----||-2~--|
-0-0-0--2-2-2--3-3-3--5-5-5-|--0-0-0--2-2-2--3-3-3------------||-0~--|


Chorus Quietly - Em, G, D, C


CHORUS - x2 - Play the acoustic chords noted above the tab
            - Ring out the notes with heavy distortion in the tab

Em                G                 D                 Cadd9
-----------------|-----------------|-----------------|-----------------|
-----------------|-----------------|-----------------|-----------------|
-----------------|-----------------|-7~--------------|-5~--------------|
-2~--------------|-5~--------------|-7~--------------|-5~--------------|
-2~--------------|-5~--------------|-5~--------------|-3~--------------|
-0~--------------|-3~--------------|-----------------|-----------------|


OUTRO

-0--------------|-3-----------------|
-0--12----------|-3--12-------------|
-0-----12---7---|-0-----12---7------|
-2--------7-----|-0--------7--------|
-2--------------|-2-----------------|
-0--------------|-3-----------------|
    *  *  * *        *  *  * *
-2--------------|-3-----------------|
-3--12----------|-3-----------------|
-2-----12---7---|-0-----------------|
-0--------7-----|-2-----------------|
----------------|-3-----------------|
----------------|-------------------|
    *  *  * *


See any mistakes, let me know, I kinda whizzed through it.  Otherwise, enjoy.
Comments