Theory Of A Deadman - Point To Prove Chords & Tabs

 

Point To Prove Chords & Tabs

Theory Of A Deadman Chords & Tabs

Version: 1 Type: Tab 0 ratings
1 star 2 stars 3 stars 4 stars 5 stars
comments

Point To Prove Tab

   
artist: Theory Of a Deadman
song: Point To Prove
tabber: Willy Prince wprince604@hotmail.com
tuning: Drop B
(B.F#,B,E,G#,C#)

intro(00:00)
|-------------------------------|-------1--1-1----1--1-1--2-2-2-|
|------3--3-3-----3--3-3--2-2-2-|-------0--0-0----0--0-0--3-3-3-|
|------2--2-2-----2--2-2--2-2-2-|-------------------------------|
|--5-5---------5----------------|--2-2---------2----------------|
|--5-5---------5----------------|--2-2---------2----------------|
|--5-5---------5----------------|--2-2---------2----------------|
  
guitar2 guitar 2 plays this along with guitar 1, you can hear it clearly
|-----------------|-----------------|
|-----------------|-----------------|
|-----------------|-----------------|
|--5-5--5-5--5-7--|--2-2--2-2--2-4--|
|--5-5--5-5--5-7--|--2-2--2-2--2-4--|
|--5-5--5-5--5-7--|--2-2--2-2--2-4--|

guitar2 underneath clean (00:06)
|--14----14----14----14----14----14----14----14----14----14-----|
|-----15----15----15----15----15----15----15----15----15----15--|
|---------------------------------------------------------------|
|---------------------------------------------------------------|
|---------------------------------------------------------------|
|---------------------------------------------------------------|
[ Tab from: http://www.guitartabs.cc/tabs/t/theory_of_a_deadman/point_to_prove_tab.html ]
verse(00:13)
|--------------------------------------------------|
|--------------------------------------------------|
|--------------------------------------------------|
|--5-5-5-5--5--5-5-5--5-7----2-2-2-2--2-2-2-2--2-4-|
|--5-5-5-5--5--5-5-5--5-7----2-2-2-2--2-2-2-2--2-4-|
|--5-5-5-5--5--5-5-5--5-7----2-2-2-2--2-2-2-2--2-4-|

pre-chorus(00:39)  chorus(00:42)(01:28)
|----------------|---------------------|
|----------------|---------------------|
|----------------|--4----7----12----9--|
|--10--9---5--7--|--2----5----10----7--|
|--10--9---5--7--|--2----5----10----7--|
|--10--9---5--7--|--2----5----10----7--|

before bridge
|---------------------|-------------------------------|
|---------------------|-------------------------------|
|---------------------|--7-7-7-7-7-7-7--4-4-4-4-4-4-4-|
|--5h7--7h9--9h12--7--|--5-5-5-5-5-5-5--2-2-2-2-2-2-2-|
|--5h7--7h9--9h12--7--|--5-5-5-5-5-5-5--2-2-2-2-2-2-2-|
|--5h7--7h9--9h12--7--|--5-5-5-5-5-5-5--2-2-2-2-2-2-2-|

"...try............."
|---------------------------|
|---------------------------|
|---------------------------|
|--2-2-2-2-2-2-2-2-2-2-2-2--|palm mute
|--2-2-2-2-2-2-2-2-2-2-2-2--|
|--2-2-2-2-2-2-2-2-2-2-2-2--|

octave chords after the above palm muted
|-----------------------------------------------------|
|-----------------------------------------------------|
|--7--9--7--9--12-12-12-12---7--9--7--9--14-14-14-14--|
|--x--x--x--x---x--x--x--x---x--x--x--x---x--x--x--x--|
|--5--7--5--7--10-10-10-10---5--7--5--7--12-12-12-12--|
|-----------------------------------------------------|


The last time I put a Theory Of A Deadman tab on the net 
I got in trouble. I got a letter from some guy saying I
broke some copyright stuff, so ill say this, this isnt
my song, i didnt write it, i just tabbed it. 
All rights reserved to Theory Of a Deadman.
Written by: Tyler Connoly
music by: Theory Of A Deadman
Comments