Theory Of A Deadman - Out Of My Head Chords & Tabs

 

Out Of My Head Chords & Tabs

Theory Of A Deadman Chords & Tabs

Version: 1 Type: Bass Tab 0 ratings
1 star 2 stars 3 stars 4 stars 5 stars
comments

Out Of My Head Bass Tab

0:23 Post Chorus
G:---------------|
D:---------------| x2 
A:-----------2---|
E:--4--44--2----0|

Verse: Maybe It Was The Way...
G:---------------|
D:---------------| x3 
A:-----------2---|
E:--4--44--2-----|

Pre-Chorus: "But I know I Want You Back...
G:-------------------------|
D:-------------------------| x1
A:--4-4-4-4-4-4------------|
E:--------------0-0-0-0-0-0|

Chorus:
G:---------------------------------------------------------------------|
D:---------------------------------------------------------------------| x2
A:--2-2-2-2-2-2-2-2----------------------------------------------------|
E:------------------2-2-2-2-2-2-2-2--4-4-4-4-4-4-4-4---0-0-0-0-0-0-0-0-|

Post Chorus:
G:---------------|
D:---------------| x2 
A:-----------2---|
E:--4--44--2----0|

Verse:
G:---------------|
D:---------------| x3
A:-----------2---|
E:--4--44--2----0|

Pre-Chorus:

G:-------------------------|
D:-------------------------| x1
A:--4-4-4-4-4-4------------|
E:--------------0-0-0-0-0-0|
[ Tab from: http://www.guitartabs.cc/tabs/t/theory_of_a_deadman/out_of_my_head_btab.html ]
Chorus:
G:---------------------------------------------------------------------|
D:---------------------------------------------------------------------| x2
A:--2-2-2-2-2-2-2-2----------------------------------------------------|
E:------------------2-2-2-2-2-2-2-2--4-4-4-4-4-4-4-4---0-0-0-0-0-0-0-0-|

Bridge:
G:----------------------------------------------------------------------|
D:----------------------------------------------------------------------|
A:--2-2-2-2-2-2-2-2--4-4-4-4-4-4-4-4-4----------------------------------|
E:-------------------------------------4-4-4-4-4-4-4-4---2-2-2-2-2-2-2-2|

G:----------------------------------------------------------------------|
D:----------------------------------------------------------------------|
A:------------------4-4-4-4-4-4-4-4-------------------------------------|
E:--4-4-4-4-4-4-4-4------------------2-2-2-2-2-2-2-2--------------------|

Break:
G:----------------------------------------------------------------------|
D:----------------------------------------------------------------------|
A:----------------------------------------------------------------------|
E:---------------------------------------------------0-0-0-0-0-0-0-0----|

Chorus:
G:---------------------------------------------------------------------|
D:---------------------------------------------------------------------| x4
A:--2-2-2-2-2-2-2-2----------------------------------------------------|
E:------------------2-2-2-2-2-2-2-2--4-4-4-4-4-4-4-4---0-0-0-0-0-0-0-0-|


Email: Hlenoi@hotmail.com
Comments