Theory Of A Deadman - Nothing Could Come Between Us Chords & Tabs

 

Nothing Could Come Between Us Chords & Tabs

Theory Of A Deadman Chords & Tabs

Version: 3 Type: Tab 0 ratings
1 star 2 stars 3 stars 4 stars 5 stars
comments

Nothing Could Come Between Us Tab

   
Theory Of A Dead Man - Nothing Could Come Between Us
Tabbed By: tza
EMail: timmy91199@yahoo.ca


Drop B:
B F# B E G# C#


Verse:

e-----------------------------------------------------------------
b--------------3------------------------------8-------------------
g---------------------------------------------------------------0-
d-2----------------------2--2/----------------------------7-7---0-
a-2----------------------2--2/---7-----7------------------7-7-----
d-2-----2---2-------2----2--2/---7-----7---7--------7-------------

e-----------------------------------------------------------------
b--------------3-----------3--------------------------------------
g-----------------------------------------------------------------
d-2-----2------------------------7--------------------------0-----
a-2-----2------------------------7--------------------------0-----
d-2-----2---2-------2----2---2---7--------------------------0-----

e---------------------------------------------0-------------------
b--------------3---------3---3----------------8-------------------
g------------------------x---x------------------------------0-----
d-2-----2----------------2---2---7-----7--------------------0-----
a-2-----2----------------2---2---7-----7------------7-------0-----
d-2-----2---2-------2----2---2---7-----7---7--------7-------0-----

e--------------0-----------0------------------0-------------------
b--------------3-----------3------------------8-------------------
g-----------------------------------------------------------------
d-2-----2---2-------2------2-----7-----7---7--------7-------7-----
a-2-----2---2-------2------2-----7-----7---7--------7-------7-----
d-2-----2---2-------2------2-----7-----7---7--------7-------7-----

Verse 2&3:

e-------------0-----------------------------0----------0----------
b----------------------3-------------------------8----------------
g-----------------------------------------------------------------
d-2------------------------------7--------------------------------
a-2------------------------------7--------------------------------
d-2------------------------------7--------------------------------

e-------------0-----------------------------0---------------------
b----------------------3-------------------------8----------------
g-----------------------------------------------------------------
d-2------------------------------7---------------------0----------
a-2------------------------------7---------------------0----------
d-2------------------------------7---------------------0----------

over 3rd verse:

e-----------------------------------------------------------12----
b-----------------------------------------------------------------
g--------------------------------------------------12-12h14-------
d-----------------------------------------------14----------------
a-----------------------------------------------------------------
d-----------------------------------------------------------------

e-----------------------------------------------------------------
b-----------------------------------------------------------------
g-------------------------------12--14--/16-----------------------
d---------------------------/14-------------14--------------------
a-----------------------------------------------------------------
d-----------------------------------------------------------------

e-------------0-----------------------------0----------0----------
b----------------------3-------------------------8----------------
g-----------------------------------------------------------------
d-2------------------------------7--------------------------------
a-2------------------------------7--------------------------------
d-2------------------------------7--------------------------------

e-------------0---------------------------------------------------
b----------------------3------------------------------------------
g-----------------------------------------------------------------
d-2------------------------------7\-------------------------------
a-2------------------------------7\----------------x\-------------
d-2------------------------------7\----------------x\-------------

Chorus:

gtr. 2

e-0--0-----0---0--5--3--5---0--------0--0--0--0--0-
b-------3----------------------3--3----------------
g--------------------------------------------------
d--------------------------------------------------
a--------------------------------------------------
d--------------------------------------------------

gtr. 1

e--------------------------------------------------
b--------------------------------------------------
g--------------------------------------------------
d-2--2--2--2--0--0--0--0--7--7--7--7----7-5----5-4-
a-2--2--2--2--0--0--0--0--7--7--7--7----7-5----5-4-
d-2--2--2--2--0--0--0--0--7--7--7--7----7-5----5-4-

gtr. 2

e-0--0-----0---0--5--3--5---5--0-----0---0-0------0
b-------3-------------------------3-----------3-3--
g--------------------------------------------------
d--------------------------------------------------
a--------------------------------------------------
d--------------------------------------------------

gtr. 1

e--------------------------------------------------
b--------------------------------------------------
g--------------------------------------------------
d-2--2--2--2--0--0--0--0--7--7--7--7------5------0-
a-2--2--2--2--0--0--0--0--7--7--7--7------5------0-
d-2--2--2--2--0--0--0--0--7--7--7--7----0-5----0-0-

last bar

gtr. 2

e-0--0-----0--0--5--3--5--5--0-----0--0------------
b-------3-----------------------3------------------
g--------------------------------------------------
d--------------------------------------------------
a--------------------------------------------------
d--------------------------------------------------

gtr. 1

e--------------------------------------------------
b--------------------------------------------------
g--------------------------------------------------
d-2--2--2--2--0--0--0--0--7--7--7--7---------------
a-2--2--2--2--0--0--0--0--7--7--7--7---------------
d-2--2--2--2--0--0--0--0--7--7--7--7---------------

Bridge: x3

gtr. 4 w/ wah

e-----------------------------------------------------------------
b-----------------------------------------------------------------
g-----------------------------------------------------------------
d-----------------------------------------------------------------
a-5-7-7-5-7-7-5-7-7-5-7-7-5-7-7-5-7br-5---------------------------
d---------------------------------------8--7-5--------------------

gtr. 1&2

e-----------------------------------------------------------------
b-----------------------------------------------------------------
g-----------------------------------------------------------------
d-0-2-2-0-2-2-0-2-2-0-2-2-0-2-2-0-7-7-7-8--7-5--------------------
a-0-2-2-0-2-2-0-2-2-0-2-2-0-2-2-0-7-7-7-8--7-5--------------------
d-0-2-2-0-2-2-0-2-2-0-2-2-0-2-2-0-7-7-7-8--7-5--------------------

then

gtr. 4 w/ wah

e-----------------------------------------------------------------
b-----------------------------------------------------------------
g-----------------------------------------------------------------
d----------------------------------------5-7-7br-5-7br-5-7br-7br--
a-5-7-7-5-7-7-5-7-7-5-7-7-5-7-7-5--5h6h7--------------------------
d-----------------------------------------------------------------

gtr. 1&2

e-----------------------------------------------------------------
b-----------------------------------------------------------------
g-----------------------------------------------------------------
d-0-2-2-0-2-2-0-2-2-0-2-2-0-2-2-0-7-7-7-7-7-7-7-7-7-7-7-7-7-7-7-7-
a-0-2-2-0-2-2-0-2-2-0-2-2-0-2-2-0-7-7-7-7-7-7-7-7-7-7-7-7-7-7-7-7-
d-0-2-2-0-2-2-0-2-2-0-2-2-0-2-2-0-7-7-7-7-7-7-7-7-7-7-7-7-7-7-7-7-

Solo:

E5
[ Tab from: http://www.guitartabs.cc/tabs/t/theory_of_a_deadman/nothing_could_come_between_us_tab_ver_3.html ]
e------------------------------------------------------
b------------------------------------------------------
g-2brp0-----2brp0-----2brp0-----2brp0-----0------------
d-------2p0-------2p0-------2p0-------2p0---2---2~~~~--
a------------------------------------------------------
d------------------------------------------------------

A5                                      

e-------0--------------------------------
b----------------------------------------
g---2/3----------12----------------------
d----------12/14----14-h14p12----14brbr--
a-----------------------------14---------
d----------------------------------------

E5

e------------------------------------------------------
b------------------------------------------------------
g---------------------------12-------12-14brp12--------
d------12----14~~~-12----12----14-12------------14p12--
a---14----14----------14-------------------------------
d------------------------------------------------------

A5

e------------------------------------------------------
b-----------------------------14brp12----12----15-15b--
g-14brp12-------14brp12-------14br----15---------------
d---------14p12---------14-12--------------------------
a------------------------------------------------------
d------------------------------------------------------

Interlude:

e------------------------------------------------------
b------------------------------------------------------
g------------------------------------------------------
d-5------------7------------5------------7-------------
a-5------------7------------5------------7-------------
d-5------------7------------5------------7-------------

fill in outro chorus:

e----------------------------------
b----------------------------------
g-----------------9-7--------------
d-7---7---7---7-------9-8-7-5------
a-7---7---7---7---------------7-5--
d-7---7---7---7--------------------

Outro:

gtr. 1&2

e-----------------------------------------------------------------
b-----------------------------------------------------------------
g-----------------------------------------------------------------
d-0-2-2-0-2-2-0-2-2-0-2-2-0-2-2-0-7-7-7-7-7-7-7-7-7-7-7-7-7-7-7-7-
a-0-2-2-0-2-2-0-2-2-0-2-2-0-2-2-0-7-7-7-7-7-7-7-7-7-7-7-7-7-7-7-7-
d-0-2-2-0-2-2-0-2-2-0-2-2-0-2-2-0-7-7-7-7-7-7-7-7-7-7-7-7-7-7-7-7-

gtr. 4 w/ wah

e-----------------------------------------------------------------
b-----------------------------------------------------------------
g-----------------------------------------------------------------
d-----------------------------------------------------------------
a-5-7-7-5-7-7-5-7-7-5-7-7-5-7-7-5-7br-5-7br-5-7br-------5---------
d-------------------------------------------------5-6-7---7-7--5--

gtr. 1&2

e-----------------------------------------------------------------
b-----------------------------------------------------------------
g-----------------------------------------------------------------
d-0-2-2-0-2-2-0-2-2-0-2-2-0-2-2-0-7-7-7-7-7-7-7-7-7\--------------
a-0-2-2-0-2-2-0-2-2-0-2-2-0-2-2-0-7-7-7-7-7-7-7-7-7\--------------
d-0-2-2-0-2-2-0-2-2-0-2-2-0-2-2-0-7-7-7-7-7-7-7-7-7\--------------

gtr. 4 w/ wah

e-----------------------------------------------------------------
b-----------------------------------------------------------------
g-----------------------------------------------------------------
d-----------------------------------------------------------------
a-5-7-7-5-7-7-5-7-7-5-7-7-5-7-7-5-7br-5---------------------------
d---------------------------------------5-7-5-7-5-7\--------------

thatís all

from: My Tab Rip Off-z
http://www.angelfire.com/tx4/tabz/tabs.html

trevor jones
timmy91199@yahoo.ca
===========
artist: Theory Of A Deadman	
song: Nothing Could Come Between Us
tabbed by: Willy Prince wprince604@hotmail.com

tuning: 1 and a half steps down with drop d
B,F#,B,E,G#,C#

I'd like to say these guys are amazing and they are gonna be
huge, their album is out September 17 and I know all the songs
will probably be as awesome as this one.

intro(00:01)slightly distorted with lots a reverb
|-----------------------------------------------|-----|
|---------3----------8---------------3---3------|-----|
|-----------------------7-----------------------|-----|
|--2-2-2------7-7-7-----9------2-2-2---2-----7--|-----|
|--2-2--------7-7-------7------2-2-----------7--|-0-5-|
|--2-2--------7-7-------7------2-2-----------7--|-0-5-|

|-------------------------------------------------------------|
|--------3---3----------8------------------3---3--------8---8-|
|-------------------------------------------------------------|
|--2-2-2---2------7-7-7----7---------2-2-2---2----7-7-7---7---|
|--2-2------------7-7------7----0-5--2-2----------7-7---------|
|--2-2------------7-7------7----0-5--2-2----------7-7---------|

verse(00:26) 
|----------------------------------|--0-----------0--------|
|----v----v----v-----v----v----v---|-----3-----------8-----|
|--4-4--4-4--4-4---9-9--9-9--9-9---|--------4-----------9--|
|--2-2--2-2--2-2---7-7--7-7--7-7---|-----------------------|
|--2-2--2-2--2-2---7-7--7-7--7-7---|-----------------------|
|--2-2--2-2--2-2---7-7--7-7--7-7---|-----------------------|
   guitar 1 strums these chords   guitar 2 plays this underneath
              fig.1                          fig.2

chorus(00:50)
|---------------------------------------------|
|------------------------3-3------------------|
|------------------------2-2------------------|
|-------------------2-2--0-0--7-7---7-5--7-5--|
|--x(pick scrape)x--2-2--0-0--7-7---7-5--7-5--|
|--x-------------x--2-2--0-0--7-7---7-5--7-5--|
                     repeat fig.2 underneath

bridge(02:04)
|--------------------------------------|
|--------------------------------------|
|--------------------------------------|
|--0-2-0-2-0-2-0-2-0-2---7-7-7-7--7-5--|
|--0-2-0-2-0-2-0-2-0-2---7-7-7-7--7-5--|
|--0-2-0-2-0-2-0-2-0-2---7-7-7-7--7-5--|

this is played underneath bridge chords with wah
(I got it as close as possible)
|------------------------------------------------------|
|------------------------------------------------------|
|------------------------------------------------------|
|------------------------------------------------------|
|--5-7-7--5-7-7--5-7-7--5-7-7--5-7-7---7-5----5--0-----|
|-------------------------------------------7-------5--|

solo                (02:28)
|------------------|-------------------------------------
|------------------|-------------------------------------
|------------------|-------------------------------------
|--5-7-5-7--8-7-5--|--5h7p5----5h7p5----5h7p5----5h7p5---
|------------------|--------7--------7--------7--------7-
|------------------|-------------------------------------
this little part 
leads into the solo
with wah still.(x2)

-------------------------------------------------------
----------------------8--10--12--10-8------------------
----------------7--9-------------------9br------9------
--7-5-5---7--9------------------------------7-9---7-9--
-------------------------------------------------------
-------------------------------------------------------

------------------------------------------------|
-----8--8h10p8----8h10p8----8h10p8----8h10p8----|
--9------------9---------9---------9---------9--|
------------------------------------------------|
------------------------------------------------|
------------------------------------------------|

clean part after bridge(02:41)  lead fill(02:57)
|-----------------------------|---------------------------|
|-----------------------------|---------------------------|
|-----------------------------|---------------------------|
|--5-------7-------5-------7--|--14-12---12---------------|
|--5-------7-------5-------7--|--------14--14--12--10-----|
|--5-------7-------5-------7--|------------------------14-|

Well that's basically it, the end is just repeated stuff.
The solo may be a little shaky but i did the best i could, If
you have any questions,comments or corrections just mail me.
Peace
Comments