Theory Of A Deadman - No Surprise Chords & Tabs

 

No Surprise Chords & Tabs

Theory Of A Deadman Chords & Tabs

Version: 1 Type: Tab 0 ratings
1 star 2 stars 3 stars 4 stars 5 stars
comments

No Surprise Tab

   
----------------------------------------------------------------------------
                      NO SURPRISE - Theory of a Deadman
----------------------------------------------------------------------------

Tabbed by: Tyler Greig

Email: gtheleadguitarist@hotmail.com


Tuning: Drop D


INTRO (distortion on for last B5)
e|-------------|-------------|
B|-------------|-------------|
G|--4~---------|--7-7-5-7-5--|
D|--4-------2~-|--7-7-5-7-5--|
A|--2~----3~---|--5-5-3-5-3--|
E|------5~-----|-------------|

MAIN RIFF
e|--/7-7-----------------------------/7-7-------------------------|
B|------7--------------------------------7------------------------|
G|--------8-8h9p8-11-11-9-8----------------8-8h9p8-7-7-5h7p5-4v\--|
D|--------------------------------9-------------------------------|
A|--------------------------7-7h9---------------------------------|
E|----------------------------------------------------------------|

VERSE (clean)
    V V  V V ^V^ V V
e|--------------------|-------------|
B|--------------------|-------------|
G|--4-4--4-4-444-5-5--|--7-7-5-7-5--|
D|--4-4--4-4-444-5-5--|--7-7-5-7-5--|
A|--2-2--2-2-222-3-3--|--5-5-3-5-3--|
E|--------------------|-------------|
repeat first part however many times, then play second part, then back to first

CHORUS (Well it ain't no surprise)
e|---------------------------------------------|
B|---------------------------------------------|
G|------------------7-7------------------------|
D|-5-55-55-55-55-55-7-7-7-77-77-77-77-77-77-77-|
A|-5-55-55-55-55-55-5-5-7-77-77-77-77-77-77-77-|
E|-5-55-55-55-55-55-----7-77-77-77-77-77-77-77-| x4

MAIN RIFF
e|--/7-7-----------------------------/7-7-------------------------|
B|------7--------------------------------7------------------------|
G|--------8-8h9p8-11-11-9-8----------------8-8h9p8-7-7-5h7p5-4v\--|
D|--------------------------------9-------------------------------|
A|--------------------------7-7h9---------------------------------|
E|----------------------------------------------------------------|

VERSE 2 (clean)
    V V  V V ^V^ V V
e|--------------------|-------------|
B|--------------------|-------------|
G|--4-4--4-4-444-5-5--|--7-7-5-7-5--|
D|--4-4--4-4-444-5-5--|--7-7-5-7-5--|
A|--2-2--2-2-222-3-3--|--5-5-3-5-3--|
E|--------------------|-------------|

[ Tab from: http://www.guitartabs.cc/tabs/t/theory_of_a_deadman/no_surprise_tab.html ]
e|-/7-7----------------------------------------7777-------------7777----------77---|
B|-----7---------------------------7777----7777-----7777----7777-----7777-77-------|
G|-------8-8h9p8-7-7-5h7p5-4v\---------8888-------------8888----------------88--88-|
D|---------------------------------------------------------------------------------|
A|---------------------------------------------------------------------------------|
E|---------------------------------------------------------------------------------|

CHORUS
e|---------------------------------------------|
B|---------------------------------------------|
G|------------------7-7------------------------|
D|-5-55-55-55-55-55-7-7-7-77-77-77-77-77-77-77-|
A|-5-55-55-55-55-55-5-5-7-77-77-77-77-77-77-77-|
E|-5-55-55-55-55-55-----7-77-77-77-77-77-77-77-| x4


MAIN RIFF
e|--/7-7-----------------------------/7-7-------------------------|
B|------7--------------------------------7------------------------|
G|--------8-8h9p8-11-11-9-8----------------8-8h9p8-7-7-5h7p5-4v\--|
D|--------------------------------9-------------------------------|
A|--------------------------7-7h9---------------------------------|
E|----------------------------------------------------------------|


BRIDGE (distortion on for last B5)
e|---------------------------------------------|
B|---------------------------------------------|
G|-4~------4---------4----------4----------4\--|
D|---------4------2~-4-------2~-4-------2~-4\--|
A|---------2----3~---2-----3~---2-----3~---2\--|
E|------------5~---------5~---------5~---------|

CHORUS
e|---------------------------------------------|
B|---------------------------------------------|
G|------------------7-7------------------------|
D|-5-55-55-55-55-55-7-7-7-77-77-77-77-77-77-77-|
A|-5-55-55-55-55-55-5-5-7-77-77-77-77-77-77-77-|
E|-5-55-55-55-55-55-----7-77-77-77-77-77-77-77-| x4


MAIN RIFF
e|--/7-7-----------------------------/7-7-----------------------------|
B|------7--------------------------------7----------------------------|
G|--------8-8h9p8-11-11-9-8----------------8-8h9p8-11-11-9-8----------|
D|--------------------------------9--------------------------------9--|
A|--------------------------7-7h9----------------------------7-7h9----|
E|--------------------------------------------------------------------|

MAIN RIFF
e|--/7-7-----------------------------/7-7-------------------------|
B|------7--------------------------------7------------------------|
G|--------8-8h9p8-11-11-9-8----------------8-8h9p8-7-7-5h7p5-4v\--|
D|--------------------------------9-------------------------------|
A|--------------------------7-7h9---------------------------------|
E|----------------------------------------------------------------|

Do the final slide slowly, and you're done.


| /  slide up
| \  slide down
| h  hammer-on
| p  pull-off
| ~  vibrato
| +  harmonic
| x  Mute note
============================================================================
Comments