Theory Of A Deadman - Make Up Your Mind Chords & Tabs

 

Make Up Your Mind Chords & Tabs

Theory Of A Deadman Chords & Tabs

Version: 4 Type: Tab 0 ratings
1 star 2 stars 3 stars 4 stars 5 stars
comments

Make Up Your Mind Tab

   
artist: Theory Of A Deadman
song: Make Up Your Mind
tabber: Will Prince wprince604@hotmail.com
tuning: 1 and a half steps down with drop d
(B,F#,B,E,G#,C#)

I don't know who the person is that spelled Deadman "Dead Man", but here's
the song anyway.

intro/verse(clean)(00:01)
"make up your mind..."
|--0-------0-----0-----0---0--------------0------------|
|--3-3-----3-3---3-3---3-3-3--------------3-3----------|
|--2-2-2-2-2-2---0-0-0-0-0-0--7-7-7-7-7---0-0-0----5-7-|
|--0-0-0-0-0-0---2-2-2-2-2-2--5-5-5-5-5---2-2-2----3-5-|
|----------------3-3-3-3-3-3--5-5-5-5-5---3-3-3----3-5-|
|-----------------------------5-5-5-5-5------------3-5-|

" those words that you..."(00:14)
|--0-0-0-0-0-0---0-0-0-0---0-----------------|
|--3-3-3-3-3-3---3-3-3-3---3--------------3--|
|--2-2-2-2-2-2---0-0-0-0-0-0--7-7-7-7-7---0--|
|--0-0-0-0-0-0---2-2-2-2-2-2--5-5-5-5-5---2--|
|----------------3-3-3-3-3-3--5-5-5-5-5---3--|
|-----------------------------5-5-5-5-5------|

pre-chorus(00:27)
" I started thinkin..."
|------------------------------------------------|
|------------------------------------------------|
|------------------------------------------------|
|------------------------------------------------|
|-------------------3-3-3-3-3-3-3-3--5-5-5-5-5---|
|-------------------3-3-3-3-3-3-3-3--5-5-5-5-5---|
                     |------palm mute--------|
chorus
|-------------------------|----------------------|------|
|--3-3--------------------|--3-3-----------------|------|
|--2-2--------------------|--2-2-----------------|------|
|--0-0---3-3---5-5--5-5-5-|--0-0--2-2--3-3--5-5--|--3-5-|
|--0-0---3-3---5-5--5-5-5-|--0-0--2-2--3-3--5-5--|--3-5-|
|--0-0---3-3---5-5--5-5-5-|--0-0--2-2--3-3--5-5--|--3-5-|
    1st,2nd,4th measure          3rd measure    before verse

[ Tab from: http://www.guitartabs.cc/tabs/t/theory_of_a_deadman/make_up_your_mind_tab_ver_4.html ]
bridge(02:01)
|--------------------------------------|
|--------------------------------------|
|--------------------------------------|
|--8-8-8-8--3-3-3-3--5-5-5-5-5-5-5-5-5-|
|--8-8-8-8--3-3-3-3--5-5-5-5-5-5-5-5-5-|
|--8-8-8-8--3-3-3-3--5-5-5-5-5-5-5-5-5-|

solo(02:13) easy solo,really cool sounding too! I use neck pickup 
with lots of reverb
|----------------------------------------------------------|
|------------------------------------------13-15-18--13----|
|--/7--7-5---12-10--14-12--12--11--7-5--7------------------|
|----------------------------------------------------------|
|----------------------------------------------------------|
|----------------------------------------------------------|

|---------------------------------|
|----15----18--17-----/22---------|
|---------------------------------|
|---------------------------------|
|---------------------------------|
|---------------------------------|

clean acoustic/same as verse
outro/same as chorus

lead over outro(03:23) final lead(03:48)(electric guitar)
|--------------------|---------------------|
|----------17--15----|----------17--15-----|
|--17--14------------|--17--14----------16-|
|--------------------|---------------------|
|--------------------|---------------------|
|--------------------|---------------------|

acoustic slide
|-----------------|--------------------------|
|-----------------|--------------------------|
|-----------9---7-|------------9---9--7------|
|--10---7---------|---10---7-----------------|
|-----------------|--------------------------|
|-----------------|--------------------------|

Well that's all folks. Once again, comments and corrections can
be sent by mail. Peace

* to get the cool electirc guitar outro effect I use a phaser
and set the feedback and speed both to six, also use lots of
reverb.
Comments