Theory Of A Deadman - Make Up Your Mind Chords & Tabs

 

Make Up Your Mind Chords & Tabs

Theory Of A Deadman Chords & Tabs

Version: 3 Type: Tab 0 ratings
1 star 2 stars 3 stars 4 stars 5 stars
comments

Make Up Your Mind Tab

-------------------------------------------------------------------------------
			     Make Up Your Mind - Theory Of A Dead Man
-------------------------------------------------------------------------------

By: Trevor DeSouza      ldesouza@accesscable.net    [/ is Slide up to this fret]      
                             100% Correct, Enjoy. 



Intro/Verse (Clean)        

      Make up your mind, and I'll make up mine
e|---------------------0--------------------0--------------------------------|
B|---------------------0--------------------0--------------------------------|
G|---------------------8--------------------6--------------------------------|
D|---------------------9--------------------7--------------------------------|
A|---------------------9--------------------7--------------------------------|
E|---------------------7--------------------5--------------------------------|
	Dont worry about me, I'll be fine
e|------0--------------------0-----------------------------------------------|
B|------0--------------------0-----------------------------------------------|
G|------0--------------------6-----------------------------------------------|
D|------2--------------------7----------------7----9-------------------------|
A|------2--------------------7----------------5----7-------------------------|
E|------0--------------------5-----------------------------------------------|
	Those words that you said to me, Why wasn't I listening
e|------------0-------------------------------0------------------------------|
B|------------0-------------------------------0------------------------------|
G|------------8-------------------------------6------------------------------|
D|------------9-------------------------------7------------------------------|
A|------------9-------------------------------7------------------------------|
E|------------7-------------------------------5------------------------------|
	I wish I hadn't met you at all
e|--------0-------------------------0----------------------------------------|
B|--------0-------------------------0----------------------------------------|
G|--------0-------------------------6----------------------------------------|
D|--------2-------------------------7----------------------------------------|
A|--------2-------------------------7----------------------------------------|
E|--------0-------------------------5----------------------------------------|

 Prechorus  (Distortion On)

I started thinking... 
e|---------------------------------------------------------------------------|
B|---------------------------------------------------------------------------|
G|---------------------------------------------------------------------------|
D|---77777777------99999-----------------------------------------------------|
A|---77777777------99999-----(SLIDE DOWN)------------------------------------|
E|---55555555------77777-----------------------------------------------------|

We'll wake up.....
e|---------------------------------------------------------------------------|
B|---------------------------------------------------------------------------|
G|----------7777--99999999---------------------------------------------------|
D|---9999---7777--99999999---------------------------------------------------| (X2)
A|---9999---5555--77777777---------------------------------------------------|
E|---7777--------------------------------------------------------------------|

e|---------------------------------------------------------------------------|
B|---------------------------------------------------------------------------|
G|---------------7777--9999---------7777--9----------------------------------|
D|---9999--7777--7777--9999---9999--7777--9---(LET RING)----7/9--------------|
A|---9999--7777--5555--7777---9999--5555--7-----------------7/9--------------|
E|---7777--5555---------------7777--------------------------5/7--------------|

Verse (Clean)
[ Tab from: http://www.guitartabs.cc/tabs/t/theory_of_a_deadman/make_up_your_mind_tab_ver_3.html ]
      Make up your mind, and I'll make up mine
e|---------------------0--------------------0--------------------------------|
B|---------------------0--------------------0--------------------------------|
G|---------------------8--------------------6--------------------------------|
D|---------------------9--------------------7--------------------------------|
A|---------------------9--------------------7--------------------------------|
E|---------------------7--------------------5--------------------------------|
	Dont worry about me, I'll be fine
e|------0--------------------0-----------------------------------------------|
B|------0--------------------0-----------------------------------------------|
G|------0--------------------6-----------------------------------------------|
D|------2--------------------7----------------7----9-------------------------|
A|------2--------------------7----------------5----7-------------------------|
E|------0--------------------5-----------------------------------------------|
	The Last time you yelled at me, I swore that i heard you say
e|----------0---------------------------0------------------------------------|
B|----------0---------------------------0------------------------------------|
G|----------8---------------------------6------------------------------------|
D|----------9---------------------------7------------------------------------|
A|----------9---------------------------7------------------------------------|
E|----------7---------------------------5------------------------------------|
	I wish I hadn't met you at all
e|--------0-------------------------0----------------------------------------|
B|--------0-------------------------0----------------------------------------|
G|--------0-------------------------6----------------------------------------|
D|--------2-------------------------7----------------------------------------|
A|--------2-------------------------7----------------------------------------|
E|--------0-------------------------5----------------------------------------|



I started thinking... (Distortion On)
e|---------------------------------------------------------------------------|
B|---------------------------------------------------------------------------|
G|---------------------------------------------------------------------------|
D|---77777777------99999-----------------------------------------------------|
A|---77777777------99999-----(SLIDE DOWN)------------------------------------|
E|---55555555------77777-----------------------------------------------------|

We'll wake up.....
e|---------------------------------------------------------------------------|
B|---------------------------------------------------------------------------|
G|----------7777--99999999---------------------------------------------------|
D|---9999---7777--99999999---------------------------------------------------| (X2)
A|---9999---5555--77777777---------------------------------------------------|
E|---7777--------------------------------------------------------------------|

e|---------------------------------------------------------------------------|
B|---------------------------------------------------------------------------|
G|---------------7777--9999---------7777--99999999---------------------------|
D|---9999--7777--7777--9999---9999--7777--99999999---------------------------|
A|---9999--7777--5555--7777---9999--5555--77777777---------------------------|
E|---7777--5555---------------7777-------------------------------------------|

Bridge

When will we...(Distortion On)
e|---------------------------------------------------------------------------|
B|---------------------------------------------------------------------------|
G|---------------------------------------------------------------------------|
D|----8-----7---9------------------------------------------------------------|
A|----8-----7---9------------------------------------------------------------|
E|---10-----5---7------------------------------------------------------------|

Solo

e|---------------------------------------------------------------------------|
B|--------------------------------------------------16-------/15-14--/19-----|
G|----------9-7--11-9-8--------/14-16----14---/16----------------------------|
D|----9-9-7-------------9-7-9------------------------------------------------|
A|---------------------------------------------------------------------------|
E|---------------------------------------------------------------------------|

Intro/Verse (Clean)

      Make up your mind, and I'll make up mine
e|---------------------0--------------------0--------------------------------|
B|---------------------0--------------------0--------------------------------|
G|---------------------8--------------------6--------------------------------|
D|---------------------9--------------------7--------------------------------|
A|---------------------9--------------------7--------------------------------|
E|---------------------7--------------------5--------------------------------|
	Dont worry about me, I'll be fine
e|------0--------------------0-----------------------------------------------|
B|------0--------------------0-----------------------------------------------|
G|------0--------------------6-----------------------------------------------|
D|------2--------------------7----------------7----9-------------------------|
A|------2--------------------7----------------5----7-------------------------|
E|------0--------------------5-----------------------------------------------|
	Those words that you said to me, Why wasn't I listening
e|------------0-------------------------------0------------------------------|
B|------------0-------------------------------0------------------------------|
G|------------8-------------------------------6------------------------------|
D|------------9-------------------------------7------------------------------|
A|------------9-------------------------------7------------------------------|
E|------------7-------------------------------5------------------------------|
	I wish I hadn't met you at all
e|--------0-------------------------0----------------------------------------|
B|--------0-------------------------0----------------------------------------|
G|--------0-------------------------6----------------------------------------|
D|--------2-------------------------7----------------------------------------|
A|--------2-------------------------7----------------------------------------|
E|--------0-------------------------5----------------------------------------|

We'll wake up.....
e|---------------------------------------------------------------------------|
B|---------------------------------------------------------------------------|
G|----------7777--99999999---------------------------------------------------|
D|---9999---7777--99999999---------------------------------------------------| (X2)
A|---9999---5555--77777777---------------------------------------------------|
E|---7777--------------------------------------------------------------------|

e|---------------------------------------------------------------------------|
B|---------------------------------------------------------------------------|
G|---------------7777--9999---------7777--99999999---------------------------|
D|---9999--7777--7777--9999---9999--7777--99999999---------------------------|
A|---9999--7777--5555--7777---9999--5555--77777777---------------------------|
E|---7777--5555---------------7777-------------------------------------------|

Repeat until song is complete.

Comments