Theory Of A Deadman - Make Up Your Mind Chords & Tabs

 

Make Up Your Mind Chords & Tabs

Theory Of A Deadman Chords & Tabs

Version: 1 Type: Tab 0 ratings
1 star 2 stars 3 stars 4 stars 5 stars
comments

Make Up Your Mind Tab

theory of a deadman
make up your mind

awesome song and band so listen to all of there songs.
drop d tuning

just strum these chords and listen to the 
song and you will know where to play them

“make up your mind and ill make up mine…”
E ----2-----x-----------x-----------------2-----x
B ----2-----2-----------2-----------------2-----2
G ----4-----4-----4-----4-----2-----4-----4-----4
D ----4-----2-----2-----2-----4-----6-----4-----2
A ----2-----0-----2-----0-----5-----7-----2-----0
D ----x-----x-----2-----x-----0-----------x-----x
                          (play x2)
“ill sit back and relax, and wait for the morning”
G -------------------------- 
D -------0--------2-------
A -------0--------2-------
D -------0--------2--------

“well wake up and make up…”
E ------2--------------------------
B ------2--------------------------
G ------4--------------------------
D ------4--------0------2---------
A ------2--------0------2---------
D ---------------0------2----------
[ Tab from: http://www.guitartabs.cc/tabs/t/theory_of_a_deadman/make_up_your_mind_tab.html ]
play during solo
E ------2--------------------------
B ------2--------------------------
G ------4--------------------------
D ------4--------0------2---------
A ------2--------0------2---------
D ---------------0------2----------

Lyrics
Verse 1
make up your mind and ill make up mine.
Don’t worry about me ill be fine
Those words that you said to me why wasn’t I listening
I wish I hadnt met you at all. I started thinking

chorus
Ill sit back and relax and wait for the morning
Well wake up well make up and do this for the last time
Well wake up well make up and do this for the last time
If we break up well wind up losing both of our minds 
Well wake up and make up and do this for the last time

Verse 2 
Make up your mind and ill make up mine 
Don’t worry about me ill be fine
The last time you yelled at me I swore that I heard you say
I wish I hadnt met you at all. I started thinking
 
Chorus

When will we make up wil we break up
Lets wake up lets wake up lets wake up

Solo
Verse 1
chorus
Comments