Theory Of A Deadman - Make Up Your Mind Chords & Tabs

 

Make Up Your Mind Chords & Tabs

Theory Of A Deadman Chords & Tabs

Version: 1 Type: Bass Tab 0 ratings
1 star 2 stars 3 stars 4 stars 5 stars
comments

Make Up Your Mind Bass Tab

   
This is my first tab and i am not sure if this the hole song

For 4 string Bass

Tuning- E,A,D,G


G------------------------------------------------------------------
D------------------------------------------------------------------
A-----------------------------------------------5-7----------------
E--7----7-7-7------5----5-5-5-----0----0-0-0--5--------------------

G------------------------------------------------------------------
D------------------------------------------------------------------
A-----------------------------------------------5-7----------------
E--7----7-7-7------5----5-5-5-----0----0-0-0--5--------------------

G---------------------------------------------------------
D---------------------------------------------------------
A------------5-5-5-5---7-7-7-7-7-7-7-7--------------------
E--7-7-7-7------------------------------------------------
[ Tab from: http://www.guitartabs.cc/tabs/t/theory_of_a_deadman/make_up_your_mind_btab.html ]
G---------------------------------------------------------
D---------------------------------------------------------
A------------5-5-5-5---7-7-7-7-7-7-7-7--------------------
E--7-7-7-7------------------------------------------------

G---------------------------------------------------------
D---------------------------------------------------------
A------------4-4-4-4---5-5-5-5---7-7-7-7-7-7-7-7----------
E--7-7-7-7------------------------------------------------

G------------------------------------------------------------------
D------------------------------------------------------------------
A-----------------------------------------------5-7----------------
E--7----7-7-7------5----5-5-5-----0----0-0-0--5--------------------

G------------------------------------------------------------------
D------------------------------------------------------------------
A-----------------------------------------------5-7----------------
E--7----7-7-7------5----5-5-5-----0----0-0-0--5--------------------
Comments