Theory Of A Deadman - Invisible Man Chords & Tabs

 

Invisible Man Chords & Tabs

Theory Of A Deadman Chords & Tabs

Version: 4 Type: Tab 0 ratings
1 star 2 stars 3 stars 4 stars 5 stars
comments

Invisible Man Tab

   
artist: Theory Of A Deadman
song: Invisible Man
album: Spider-Man soundtrack & Theory Of A Deadman
tabber: Will Prince wprince604@hotmail.com

tuning: half a step down with drop d
(C#,G#,C#,F#,A#,D#)

intro(00:00)guitar 1      fig.1          both fig.1a
|------------------------------------|----------|
|--3-3-3-3-3-3-3-3-------------------|----------|
|--2-2-2-2-2-2-2-2-------------------|----------|
|--0-0-0-0-0-0-0-0--3-3-3-3-3-3-3-3--|--5-5--5--|
|--0-0-0-0-0-0-0-0--3-3-3-3-3-3-3-3--|--5-5--5--|
|--0-0-0-0-0-0-0-0--3-3-3-3-3-3-3-3--|--5-5--5--|
              play 2x                  then

both(00:07) fig.2                       fig.3         
|---------------------------|----------------------------|
|---------------3-----3-----|--------------3-------------|
|---------------2-----2-----|--------------2-------------|
|--3h4-3--0-----0-----0-----|-3h4-3--0-----0-----5-5--5--|
|--3h4-3--0--0--0--0--0--0--|-3h4-3--0--0--0--0--5-5--5--|
|--3h4-3--0--0-----0-----0--|-3h4-3--0--0-----0--5-5--5--|

guitar 2 lead underneath at(00:15)   fig.4
|---------------------------|-----------------------|
|---------------------------|---------3-------------|
|---------------------------|---------2-------------|*quick phaser
|--10-12--10--12-12--10h12--|--3h4-3--0----12---10--|
|---------------------------|--3h4-3--0----12---10--|
|---------------------------|--3h4-3--0----12--*10--|

verse(00:20) w/palm mute
|-------------------------------------------------|
|-------------------------------------------------|
|-------------------------------------------------|
|-------------------------------------------------|
|--------------------5----------------------------|
|----/5----3----0---------0-0-0---0-0-0---0-0-0---|
                     3 measures   

|--------------------------------*0---|
|---------------------------------3---|
|---------------------------------2---|* upstrum
|---------------------------------0---|
|--------------------5----------------|
|----/5----3----0---------0-0-0-------|
              4th measure
[ Tab from: http://www.guitartabs.cc/tabs/t/theory_of_a_deadman/invisible_man_tab_ver_4.html ]
chorus(00:34)
|--------------------------------|----------|-------------------|
|--3-3-3-3-3-3-3-3---------------|----------|-------------------|
|--2-2-2-2-2-2-2-2---------------|----------|-------------------|
|--0-0-0-0-0-0-0-0--3-3-3-3-3-3--|--5-5--5--|--5-5-5-5-5-5-5-5--|
|--0-0-0-0-0-0-0-0--3-3-3-3-3-3--|--5-5--5--|--5-5-5-5-5-5-5-5--|
|--0-0-0-0-0-0-0-0--3-3-3-3-3-3--|--5-5--5--|--5-5-5-5-5-5-5-5--|
                                              "goin' once..."
repeat figure.2 then figure.4

bridge(01:30)
|-------------------|------------------------------------------------|
|-------------------|------------------------------------------------|
|-------------------|------------------------------------------------|
|-------------------|--0-3-0--8-8-8-8-8-8-8-0-3-10-10-10-10-10-10-10-|
|-------------------|--0-3-0--8-8-8-8-8-8-8-0-3-10-10-10-10-10-10-10-|
|--0-0---0-0---0-0--|--0-3-0--8-8-8-8-8-8-8-0-3-10-10-10-10-10-10-10-|

solo(01:47)
|-----------------------------|-----------------------------------|
|-----------------------------|-----------------------------------|
|-----------------------------|-----------------------------------|
|-------------------3h5-3--0--|-----------------------------------|
|--x(pick scrape)x--3h5-3--0--|--3---5~~~~~--5--7b----------------|
|--x-------------x--3h5-3--0--|----------------------5--3---*3~~--|
  guitar 1 underneath solo

|--------------------------------------------------------|
|--------------------------------------------------------|
|--------------------------------------------------17b---|
|---------3---5~~~~------------15--17--19--17--15--------|
|--3---5--------------15h17-15---------------------------|
|--------------------------------------------------------|
This is as close as i could get, the solo really just sounds
improvised like hes just playin a random scale.

repeat chorus

outro(02:13)
guitar 1                       
|----------|--------------|------------------------------|
|----------|--------------|--3-3-3-3-3-3-3---------------|
|----------|--------------|--2-2-2-2-2-2-2---------------|
|--3--3--3-|--0-3-0-3-5-3-|--0-0-0-0-0-0-0--3-3-3-3-3-3--|
|--3--3--3-|--0-3-0-3-5-3-|--0-0-0-0-0-0-0--3-3-3-3-3-3--|
|--3--3--3-|--0-3-0-3-5-3-|--0-0-0-0-0-0-0--3-3-3-3-3-3--|

guitar over fig.1 chords
|---------------------|-----------------------------------------------|
|---------------------|-----------------------------------------------|
|--7----12----7---10--|-----------------------------------------------|
|--x-----x----x----x--|--3-3-3-3-3-3-3-3---5-5-5-5-5-5-5-5---3h5-3-0--|
|--5----10----5----8--|--3-3-3-3-3-3-3-3---5-5-5-5-5-5-5-5---3h5-3-0--|
|---------------------|--3-3-3-3-3-3-3-3---5-5-5-5-5-5-5-5---3h5-3-0--|

Lots of stuff for a song that's only 2:39. Anyway that's all of it.
Any comments or corrections can be mailed.Peace
Comments