Theory Of A Deadman - Invisible Man Chords & Tabs

 

Invisible Man Chords & Tabs

Theory Of A Deadman Chords & Tabs

Version: 3 Type: Tab 0 ratings
1 star 2 stars 3 stars 4 stars 5 stars
comments

Invisible Man Tab

   
artist: Theory Of A Deadman
song: Invisible Man
album: Theory Of A Deadman
tabber: Willy Prince wprince604@hotmail.com

tuning: 1 and a half steps down with drop d
(B,F#,B,E,G#,C#)

intro
|-------------------------------------------------------|----------|
|-------------------------------------------------------|----------|
|-------------------------------------------------------|----------|
|--2-2-2-2-2-2-2--5-5-5-5-5-5-5--2-2-2-2-2-2-2--5-5-5-5-|--7-7--7--|
|--2-2-2-2-2-2-2--5-5-5-5-5-5-5--2-2-2-2-2-2-2--5-5-5-5-|--7-7--7--|
|--2-2-2-2-2-2-2--5-5-5-5-5-5-5--2-2-2-2-2-2-2--5-5-5-5-|--7-7--7--|

        figure.1             fig.2                  fig.2a     figure.3
|---------------2-----2---|------------|----2-----|---------|---------0--|
|---------------5-----5---|------------|----5-----|---------|---------3--|
|---------------4-----4---|------------|----4-----|---------|---------2--|
|--5h6--5--2-2--2--2--2-2-|--5h6--5--2-|-2--2--2--|-7-7--7--|--2--5---0--|
|--5h6--5--2-2--2--2--2-2-|--5h6--5--2-|-2--2--2--|-7-7--7--|--2--5---0--|
|--5h6--5--2-2--2--2--2-2-|--5h6--5--2-|-2--2--2--|-7-7--7--|--2--5---0--|

lead under intro
|--------------------------|
|--------------------------|
|--------------------------|
|--12h14--12--14-14--12~~--|
|--------------------------|
|--------------------------|

verse        play three times                fourth time
|--------------------------------------|-------------------0--|
|--------------------------------------|-------------------3--|
|--------------------------------------|-------------------2--|
|------------2---2-2-2--2-2-2--2-2-2---|----------2---2-2--0--|
|----------------2-2-2--2-2-2--2-2-2---|--------------2-2--0--|
|--7--5--2-------2-2-2--2-2-2--2-2-2---|-7--5--2------2-2--0--|

chorus
|----------------------------------------------------------------|
|----------------------------------------------------------------|
|----------------------------------------------------------------|
|--2-2-2-2-2-2-2--5-5-5-5-5-5-5--2-2-2-2-2-2-2--5-5-5-5--7-7--7--|
|--2-2-2-2-2-2-2--5-5-5-5-5-5-5--2-2-2-2-2-2-2--5-5-5-5--7-7--7--|
|--2-2-2-2-2-2-2--5-5-5-5-5-5-5--2-2-2-2-2-2-2--5-5-5-5--7-7--7--|

|--------------------------------------------------------------|
|--------------------------------------------------------------|
|--------------------------------------------------------------|
|--2-2-2-2-2-2-2--5-5-5-5-5-5-5--2-2-2-2-2-2-2--5-5-5-5-5-5-5--|
|--2-2-2-2-2-2-2--5-5-5-5-5-5-5--2-2-2-2-2-2-2--5-5-5-5-5-5-5--|
|--2-2-2-2-2-2-2--5-5-5-5-5-5-5--2-2-2-2-2-2-2--5-5-5-5-5-5-5--| 
[ Tab from: http://www.guitartabs.cc/tabs/t/theory_of_a_deadman/invisible_man_tab_ver_3.html ]
figure.4
..goin once,goin twice..  *** this I'm gone!
|-----------------------|-                   -|
|-----------------------|-                   -|
|-----------------------|-                   -|
|--7-7-7-7-7-7-7-7-7-7--|-                   -|
|--7-7-7-7-7-7-7-7-7-7--|-                   -|
|--7-7-7-7-7-7-7-7-7-7--|-                   -|

repeat figure.1
repeat figure.2
repeat figure.3

bridge(01:29)
..I'm gone......  
|-----------------|-----------------------------------------------------|
|-----------------|-------------------------------------3-3-3-3-3-3-3-3-|
|-----------------|-----------5-5-5-5-5-5-5-5-----------2-2-2-2-2-2-2-2-|
|--2-2--2-2--2-2--|--2--5--2--5-5-5-5-5-5-5-5--2--5--2--0-0-0-0-0-0-0-0-|
|--2-2--2-2--2-2--|--2--5--2--3-3-3-3-3-3-3-3--2--5--5--0-0-0-0-0-0-0-0-|
|--2-2--2-2--2-2--|--2--5--2-------------------2--5--2--0-0-0-0-0-0-0-0-|

solo chords         solo
|-------------2--|------------------------------------|
|-------------5--|------------------------------------|
|-------------4--|------------------------------------|a.h= artificial harmonic
|--5h6-5--2-2-2--|------------------------------------|
|--5h6-5--2-2-2--|--5-7-5-7b~--5-7-10b--7-----5-------|
|--5h6-5--2-2-2--|-------------------------5-----2*~~~|
                                            a.h
|-----------------------------------------------------|
|-----------------------------------------------------|
|------------------------------------------------19v--|
|---------------------------------17-19-19b--17-------|
|--10--12-12~~~--12-10--7---17-19---------------------|
|-----------------------------------------------------|

repeat chorus
invisa..  bal.bal.bal  ..like the invisible         
        |-------------|----------------------|
        |-------------|----------------------|
        |-------------|----------------------|
        |--7---7---7--|---5----7--5--7-7--5--|
        |--7---7---7--|---5----7--5--7-7--5--|
        |--7---7---7--|---5----7--5--7-7--5--|
...man.....
|----------------------------|----------------|
|----------------------------|----------------|
|----------------------------|--9--14--9--12--|
|--2-2-2-2-2-2--5-5-5-5-5-5--|--x---x--x---x--|
|--2-2-2-2-2-2--5-5-5-5-5-5--|--7--12--7--10--|
|--2-2-2-2-2-2--5-5-5-5-5-5--|----------------|

repeat figure.4 on outro
then..
..I'm gone!
|---------------|--------------|
|---------------|--------------|
|---------------|--------------|guitar 2 underneath
|--5--7--5---2--|--5--7--5--2--|
|--5--7--5---2--|--------------|
|--5--7--5---2--|--------------|


The last time I put a Theory Of A Deadman tab on the net 
I got in trouble. I got a letter from some guy saying I
broke some copyright stuff, so ill say this, this isnt
my song, i didnt write it, i just tabbed it. 
All rights reserved to Theory Of a Deadman.
Written by: Tyler Connoly
music by: Theory Of A Deadman
Comments