Theory Of A Deadman - In The Middle Chords & Tabs

 

In The Middle Chords & Tabs

Theory Of A Deadman Chords & Tabs

Version: 2 Type: Tab 0 ratings
1 star 2 stars 3 stars 4 stars 5 stars
comments

In The Middle Tab

Song: In The Middle
Band: Theory Of A Deadman
Album: Gasoline

Rock Hard ~ Kate
[ Tab from: http://www.guitartabs.cc/tabs/t/theory_of_a_deadman/in_the_middle_tab_ver_2.html ]
(x40)
E |-----------------------------0---------|
B |---3--------3-------3----------3-------|
G |------0-------0-------0----------------|
D |---------------------------------------|
A |---------0-------2--------3------------|
E |3--------------------------------------|

This is the whole song starting on beat 1, for guitar 1, and then at the very end strum

E |---3-----|
B |---3-----|
G |---0-----|
D |---0-----|
A |---3-----|
E |---0-----|
Comments