Theory Of A Deadman - In The Middle Chords & Tabs

 

In The Middle Chords & Tabs

Theory Of A Deadman Chords & Tabs

Version: 1 Type: Tab 0 ratings
1 star 2 stars 3 stars 4 stars 5 stars
comments

In The Middle Tab

   
-------------------------------------------------------------------------------
			     In The Middle - Theory Of A Deadman
-------------------------------------------------------------------------------
Tabbed by: Dick Grinwis
Email: splash_exe@hotmail.com

Tuning: Standard (EADGBe)


Guitar 1 (clean):
e|--------------------0---|
B|--3-----3-----3-------3-|
G|----0-----0-----0-------|
D|------------------------|
A|------0-----2-----3-----|
E|3-----------------------|

Guitar 2 (clean):
e|------------------------|
B|------------------------|
G|--0-0---0-0---0-0---0-40|
D|-0-0-0-0-0-0-0-0-0-0-0--|
A|------0-----2-----3-----|
E|3-----------------------|

Guitar 3 (distortion) part 1:
e|------------------------|
B|------------------------|
G|------------------------|
D|5-----------------------|
A|5-----------------------|
E|3-----------------------|
[ Tab from: http://www.guitartabs.cc/tabs/t/theory_of_a_deadman/in_the_middle_tab.html ]
Guitar 3 (distortion) part 2:
e|------------------------|
B|------------------------|
G|------000000444444555555|
D|555555000000444444555555|
A|555555000000222222333333|
E|333333------------------|


Guitar 1 plays from the beginning of the song all the way to the end.
Guitar 2 kicks in at 0:39 seconds and plays until 3:06
Guitar 3 will play it's part 1 four times, beginning at 1:38.
Guitar 3 will play it's part 2 from 1:57 until 3:06, playing louder from 2:57 until 3:06.
Guitar 3 will play it's part 1 one last time at 3:06.

In The Middle is track 13 of Theory Of A Deadman's new album, Gasoline, and
it's a very awesome ballad. I suggest you buy this CD right away when you see it!
ROCK ON! \m/

If you see any mistakes, feel free to contact me about it. This is actually my first tab ever,
so I still have alot to learn.
===============================================================================
Comments