Theory Of A Deadman - Hello Lonely Chords & Tabs

 

Hello Lonely Chords & Tabs

Theory Of A Deadman Chords & Tabs

Version: 2 Type: Tab 0 ratings
1 star 2 stars 3 stars 4 stars 5 stars
comments

Hello Lonely Tab

   
-------------------------------------------------------------------------------
			     Hello Lonely - Theory Of A Deadman
-------------------------------------------------------------------------------
Tabbed by: Stef Geiger

Tuning: Standard

Chords:

   C#m7  E5     E    F#5   F#7sus4    G#5   G#maug5w5  A5    A   Asus2 

e |-0-| |---| |-0-| |---|  |-0--|    |---|   |-0--|  |---| |-0-| |-0-| 
B |-0-| |---| |-0-| |---|  |-0--|    |---|   |-0--|  |---| |-2-| |-0-| 
G |-6-| |---| |-1-| |---|  |-11-|    |---|   |-13-|  |-2-| |-2-| |-2-|  
D |-6-| |-2-| |-2-| |-4-|  |-11-|    |-6-|   |-13-|  |-2-| |-2-| |-2-|  
A |-4-| |-2-| |-2-| |-4-|  |-9--|    |-6-|   |-11-|  |-0-| |-0-| |-0-|  
E |---| |-0-| |-0-| |-2-|  |----|    |-4-|   |----|  |---| |---| |---| 

   B5   Bsus4

e |---| |-0-|
B |---| |-0-|
G |-4-| |-4-|
D |-4-| |-4-|
A |-2-| |-2-|
E |---| |---|

Intro / Verse:

    C#m7  G#5 Asus2	
	
e|--0-0-0-0---0-0-|
B|--0-0-0-0---0-0-|
G|--6-6-6-6---2-2-|	Repeat... a lot.
D|--6-6-6-6-6-2-2-|
A|--4-4-4-4-6-0-0-|
E|----------4-----|

Pre-Chorus:

   A5	     B5	

e|-------------------| Repeat 4x
B|-------------------|
G|-2--2--2-2-4-4-4-4-| As with a bunch of other chords in this song, you  
D|-2--2--2-2-4-4-4-4-| can either play them as 5 chords, or add the open  
A|-0--0--0-0-2-2-2-2-| B and e strings.
E|-------------------|

Chorus: (Strumming not shown)

   E		Bsus4	   A           A

e|-0------------0----------0-----------0-----------|
B|-0------------0----------2-----------2-----------|
G|-1------------4----------2-----------2-----------|
D|-2------------4----------2-----------2-----------|
A|-2------------2----------0-----------0-----------|
E|-0-----------------------------------------------|

Bridge:

   First time:
[ Tab from: http://www.guitartabs.cc/tabs/t/theory_of_a_deadman/hello_lonely_tab_ver_2.html ]
   Bsus4    C#m7 E5   F#7sus4 G#maug5w5 F#7sus4

e|-0-0-0-0-0/0-0/0-0-0/0-/0--0--0--0-\0--0--0--0--|
B|-0-0-0-0-0/0-0/0-0-0/0-/0--0--0--0-\0--0--0--0--|
G|-4-4-4-4-4/6-6/9-9-9/11/13-13-13-13\11-11-11-11-|
D|-4-4-4-4-4/6-6/9-9-9/11/13-13-13-13\11-11-11-11-|
A|-2-2-2-2-2/4-4/7-7-7/9-/11-11-11-11\9--9--9--9--|
E|------------------------------------------------|

   Second time:

   Bsus4    C#m7 E5   F#7sus4 G#maug5w5 Bsus4

e|-0-0-0-0-0/0-0/0-0-0/0-/0--0--0--0-/0--0--0--0--|
B|-0-0-0-0-0/0-0/0-0-0/0-/0--0--0--0-/0--0--0--0--|
G|-4-4-4-4-4/6-6/9-9-9/11/13-13-13-13/16-16-16-16-|
D|-4-4-4-4-4/6-6/9-9-9/11/13-13-13-13/16-16-16-16-|
A|-2-2-2-2-2/4-4/7-7-7/9-/11-11-11-11/14-14-14-14-|
E|------------------------------------------------|

   Third time:

   Bsus4    C#m7 E5   E5	 A5 G#5

e|-0-0-0-0--0-0--0-0--0-0-0-0-0-0-----|
B|-0-0-0-0--0-0--0-0--0-0-0-0-0-0-----|
G|-4-4-4-4--6-6--9-9--9-9-9-9-9-9-----|
D|-4-4-4-4--6-6--9-9--9-9-9-9-9-9-7\6-|
A|-2-2-2-2--4-4--7-7--7-7-7-7-7-7-7\6-|
E|--------------------------------5\4-|

   Comedown:

   F#5		   A5		   C#m7	   Bsus4   Asus2

e|---------------------------------0-0-0-0-0-0-0-0-0-|
B|---------------------------------0-0-0-0-0-0-0-0-0-|
G|-----------------2-2-2-2-2-2-2-2-6-6-6-6-4-4-4-4-2-|
D|-4-4-4-4-4-4-4-4-2-2-2-2-2-2-2-2-6-6-6-6-4-4-4-4-2-|
A|-4-4-4-4-4-4-4-4-0-0-0-0-0-0-0-0-4-4-4-4-2-2-2-2-0-|
E|-2-2-2-2-2-2-2-2-----------------------------------|

If you're playing on an electric, you're probably bettor off not strumming the open e
and B strings at most points.

| /  slide up
| \  slide down
| h  hammer-on
| p  pull-off
| ~  vibrato
| +  harmonic
| x  Mute note
===============================================================================
Comments