Theory Of A Deadman - A Leg To Stand On Chords & Tabs

 

A Leg To Stand On Chords & Tabs

Theory Of A Deadman Chords & Tabs

Version: 1 Type: Tab 0 ratings
1 star 2 stars 3 stars 4 stars 5 stars
comments

A Leg To Stand On Tab

   
artist: Theory Of A Deadman
song: A Leg To Stand On track 05
tabber: Willy Prince wprince604@hotmail.com
tuning: drop B (B,F#,B,E,G#,C#)
(down 1 and a half steps with drop d)

intro(00:00) two guitars on intro guitar 2 with wah or rotovibe
                 guitar                      
                 |-------------------------------------------------|
                 |-------------------------------------------------|
Get on your horse|-----2--2-2--2--2-2-2----------2--2-2--2--2-2-2--|
and ride!!       |--3--0--0-0--0--0-0-0--3-3--3--0--0-0--0--0-0-0--|
                 |--3--0--0-0--0--0-0-0--3-3--3--0--0-0--0--0-0-0--|
                 |--3--0--0-0--0--0-0-0--3-3--3--0--0-0--0--0-0-0--|
* this rythm is a little tricky and I put it as close as possible,
listen to the song to get the feel for the rythm.

guitar 2 with wah or rotovibe on Dchord
|------------------------------------------------|
|------------------------------------------------|
|-------2--2-2--2--2-2-2-------2--2-2--2--2-2-2--|
|--\10--0--0-0--0--0-0-0--\10--0--0-0--0--0-0-0--|P=pedal
|--\-8--0--0-0--0--0-0-0--\-8--0--0-0--0--0-0-0--|
|-------0--0-0--0--0-0-0-------0--0-0--0--0-0-0--|
     P                      P

verse(00:14) "What she said to me..."
|-------------------------------------------------|
|-------------------------------------------------|
|-------------------------------------------------|
|--3--0--0-0--0--0-0-0--3-3--3--0--0-0--0--0-0-0--|
|--3--0--0-0--0--0-0-0--3-3--3--0--0-0--0--0-0-0--|
|--3--0--0-0--0--0-0-0--3-3--3--0--0-0--0--0-0-0--|
|-----------------palm muted----------------------|

(00:20)
|----------------------------------------------------------------|
|----------------------------------------------------------------|
|---------5-5-5-5-5-5-5-5----------------------2--2-2--2--2-2-2--|
|---------5-5-5-5-5-5-5-5--5-5-5-5-5-5-5--3--3-0--0-0--0--0-0-0--|
|--0-3-0--3-3-3-3-3-3-3-3--5-5-5-5-5-5-5--3--3-0--0-0--0--0-0-0--|
|--0-3-0-------------------5-5-5-5-5-5-5--3--3-0--0-0--0--0-0-0--|

chorus(00:39)(01:29)
|-----------------------------------------------------------|
|-----------------------------------------------------------|
|-----------3-3-3-3-3-3-3-3-3-3-3-3-------------------------|
|-----------3-3-3-3-3-3-3-3-1-1-1-1--5-5-5-5-5-5-5-5-5-5-5--|
|--5--3--0--1-1-1-1-1-1-1-1-1-1-1-1--5-5-5-5-5-5-5-5-5-5-5--|
|------------------------------------5-5-5-5-5-5-5-5-5-5-5--|

guitar 2 played underneath
|--------------------------------|
|-----3---3---3---3---3---3---3--|
|--------------------------------|
|---0---0---0---0---0---0---0----|
|--------------------------------|
|--------------------------------|
[ Tab from: http://www.guitartabs.cc/tabs/t/theory_of_a_deadman/a_leg_to_stand_on_tab.html ]
bridge(01:56)
|---------------------------------------------------------------|
|--3-3-3-3-3-3-3-3----------------------------------------------|
|--2-2-2-2-2-2-2-2--5-5-5-5-5-5-5-------------------------------|
|--0-0-0-0-0-0-0-0--5-5-5-5-5-5-5--5-5-5-5-5-5-5--3-3-3-3-3-3-3-|
|--0-0-0-0-0-0-0-0--3-3-3-3-3-3-3--5-5-5-5-5-5-5--3-3-3-3-3-3-3-|
|--0-0-0-0-0-0-0-0-----------------5-5-5-5-5-5-5--3-3-3-3-3-3-3-|

palm muted
|--------------------------------------------------------------|-----|
|--------------------------------------------------------------|-----|
|--------------------------------------------------------------|-----|
|--0--0-0-0-0--0--5--5-5-5-5--5--4--4-4-4-4--4--3--3-3-3-3--3--|-----|
|--0--0-0-0-0--0--3--3-3-3-3--3--2--2-2-2-2--2--3--3-3-3-3--3--|-----|
|--0--0-0-0-0--0--------------------------------3--3-3-3-3--3--|-3~~-|
                                                                a.h
just before solo starts    solo chords                artificial harmonic
    |-----------------|--------------|
    |-----------------|--3-----------|
    |-----------------|--2-----------|
    |--0h3-0--3-3--0--|--0--5--5--3--|
    |--0h3-0--3-3--0--|--0--3--5--3--|
    |--0h3-0--3-3--0--|--0-----5--3--|

solo with wah(02:21)
|-------------------------------------------------|
|-------------------------------------------------|
|-------------------------------------------------|
|-------------------------------------------------|
|--5--5-7-8--7-8--10---8-10--10b------------------|
|---------------------------------3--5-6-5--3--0--|

|-----------------------------------------|-----------------------|
|-----------------------------------------|-----------------------|
|-----------------------------------------|----------10h12p10-----|
|----------------------------12-------12--|----10-12----------12--|
|--10-11-12--10-11-12--10-11----10-11-----|--12-------------------|
|-----------------------------------------|-----------------------|

|-------------------------------------|
|---------------------------------15--|
|--10h12p10-----------10-12b-10-------|
|-----------12--10-12-----------------|
|-------------------------------------|
|-------------------------------------|

repeat chorus as outro

Well I got this as close as i could. The solo is pretty accurate
I feel, but if you have tabbed it better, send it to me. Send
comments and corrections to my mail. Peace


The last time I put a Theory Of A Deadman tab on the net 
I got in trouble. I got a letter from some guy saying I
broke some copyright stuff, so ill say this, this isnt
my song, i didnt write it, i just tabbed it. 
All rights reserved to Theory Of a Deadman.
Written by: Tyler Connoly
music by: Theory Of A Deadman
Comments