Theoco - Get Up! Chords & Tabs

 

Get Up! Chords & Tabs

Theoco Chords & Tabs

Version: 1 Type: Tab 1 rating
1 star 2 stars 3 stars 4 stars 5 stars
comments

Get Up! Tab

   
This song was written by myself, Steven Hillcoat, of the band THEOCO! From Paisley, Scotland
copyright 2004. 

(verse riff)
 E
E-----------------------------
B-----------------------------
G-----------------------------
D-----------0-0-h-2-0---------
A-----0-h-2-----------2-p-0---
E-0-0-----------------------3-
 I've been lying for too..

  A                 G
E-----------------------------
B-----------------------------
G-----------------------------
D-----------0-0-h-2-0---------
A-0-0-0-h-2-------------------
E---------------------3-------
 ...long on my back..

(verse 1)
E                   A           G     E
I've been lying for too long on my back,
E           A                G      E
i'm on the receiving end of your flak,
E           A                G      E
i cant cease the return of your moods,
E           A            G         
so wont you help me get through?

(bridge riff)
  E              G               A            G
E-----------------------------------------------------------------
B-----------------------------------------------------------------
G-----------------------------------------------------------------  (x2)
D-----0-h-2-0-h-2-----0-h-2-0-h-2-----0-h-2-0-h-2-0-h-2-0---------
A---------------------------------0-0---------------------2-p-0---
E-0-0-------------3-3-------------------------------------------3-
                                              So dont you comr near..
..me                               because your wasting my....

  E              G         A           G           E 
E------------------------------------------------------
B------------------------------------------------------
G-----------------------------------------0-0-h-2-0----
D-0-h-2-0-------------------------0-0-h-2-----------2--
A---------2-p-0---0-h-2-0---0-h-2----------------------
E---------------3---------3----------------------------
..time
[ Tab from: http://www.guitartabs.cc/tabs/t/theoco/get_up_tab.html ]
(bridge)
E    G    A    G                E       G    A             G       E(play 2nd part of bridge riff)
               so dont you come near me      because your wasting my time


(Chorus)
             E
    So Get up!
             G
    And Get out!
    A                               B7
    no-ones gonna tell you what i'm on about

             E
    So Get up!
             G
    And Get out!
    A                               B7
    no-ones gonna tell you what i'm on about

(Play verse riff)

(verse 2)
E                   A         G    E
If your looking for help take my advice,
E                   A         G    E
help yourself or get out of my sight,
E                   A         G    E
its time to sit up and show yourself,
E                   A                  G       E   (play bridge riff)
whats been is now gone, so dont blame any one else

(chorus)
             E
    So Get up!
             G
    And Get out!
    A                               B7
    no-ones gonna tell you what i'm on about

             E
    So Get up!
             G
    And Get out!
    A                               B7
    no-ones gonna tell you what i'm on about

(Guitar solo for 8 bars)
(breakdown drums and bass only for 4 bars)

(chorus)
             E
    So Get up!
             G
    And Get out!
    A                               B7
    no-ones gonna tell you what i'm on about

             E
    So Get up!
             G
    And Get out!
    A                               B7
    no-ones gonna tell you what i'm on about


TO LISTEN TO THIS SONG AND OTHER SONGS BY THEOCO, PLEASE VIST OUR WEBSITE
                     WWW.PUREVOLUME.COM/THEOCO
THANK YOU! 
           STEVEN
Comments