Theme - James Bond Themes (correct) Chords & Tabs

 

James Bond Themes (correct) Chords & Tabs

Theme Chords & Tabs

Version: 1 Type: Tab 1 rating
1 star 2 stars 3 stars 4 stars 5 stars
comments

James Bond Themes (correct) Tab

Submitted by Yappyguy55

It seems that everyone elses submissions fall short
So here are my two versions of James bond riffs.
Enjoy and feel free to leave me a comment or question, 
~Keep rockin' ~YappY

First Theme:

E-----0-----0-----0-----0-----0-----0-----0-----0--
B--0-----0-----1-----1-----2-----2-----1-----1-----
G--------------------------------------------------   (INTRO-RIFF 1)
D--------------------------------------------------   (PLAY 4 TIMES)
A--------------------------------------------------
E--------------------------------------------------

E--0--3----11--10----3--5--6----5--3--2------------
B------------------------------------------0--5--2-
G--------------------------------------------------
D--------------------------------------------------
A--------------------------------------------------
E--------------------------------------------------

                 (REPEAT AS DESIRED)

Second Theme:
[ Tab from: http://www.guitartabs.cc/tabs/t/theme/james_bond_themes_correct_tab.html ]
E--0--1--2--1---0--1--2--1---0--1--2--1--0(let ring)
B--------------------------------------------------
G--------------------------------------------------   (INTRO)
D--------------------------------------------------
A--------------------------------------------------
E--------------------------------------------------

E--0-5-7777-555-5-8888-555-5-7777-555-5-8888-555---
B--------------------------------------------------
G--------------------------------------------------   (SECOND RIFF)
D--------------------------------------------------
A--------------------------------------------------
E--------------------------------------------------

E--15-13---12-10-12---10-9---0-7-5-----------------
B--------------------------------------------------
G--------------------------------------------------
D--------------------------------------------------
A--------------------------------------------------
E--------------------------------------------------

                 (REPEAT SECOND RIFF)

Comments