Thelonious Monk - Blue Monk Chords & Tabs

 

Blue Monk Chords & Tabs

Thelonious Monk Chords & Tabs

Version: 2 Type: Tab 0 ratings
1 star 2 stars 3 stars 4 stars 5 stars
comments

Blue Monk Tab

Thelonius Monk
Blue Monk

Guitar 1:

|---------|-3-4-5-6-|---------------------|
|-3-4-5-6-|---------|-6-8-6-5-------------|
|---------|---------|---------8---6/7-6p5-|
|---------|---------|---------------------|
|---------|---------|-----------8---------|
|---------|---------|---------------------|

|-----------|-------------|
|-8-9-10-11-|-11-12-13-14-|
|-----------|-------------|
|-----------|-------------|
|-----------|-------------|
|-----------|-------------|

|-----------------|-13-13-13---13----|
|-6-8-6-5---------|------------------|
|---------8---6/7-|---------------10-|
|-----------------|------------------|
|-----------8-----|------------------|
|-----------------|------------------|

|-----------------|-----------------|
|-6-8-6-5---------|-6-8-6-5---------|
|---------8---6/7-|---------8---6/7-|
|-----------------|-----------------|
|-----------8-----|-----------8-----|
|-----------------|-----------------|

Guitar 2 (played simultaneously with Guitar 1):
[ Tab from: http://www.guitartabs.cc/tabs/t/thelonious_monk/blue_monk_tab_ver_2.html ]
|----------------|----------------|
|----------------|-14--14--14--14-|
|-13--13--13--13-|-12--12--12--12-|
|-12--12--12--12-|-13--13--13--13-|
|-13--13--13--13-|----------------|
|----------------|----------------|

|----------------|----------------|
|----------------|----------------|
|-13--13---------|-13--13--13--13-|
|-12--12--13--13-|-12--12--12--12-|
|-13--13--12--12-|-13--13--13--13-|
|---------13--13-|----------------|

|----------------|----------------|
|-14--14--14--14-|-14--14--14--14-|
|-12--12--12--12-|-12--12--12--12-|
|-13--13--13--13-|-14--14--14--14-|
|----------------|----------------|
|----------------|----------------|

|----------------|----------------|
|----------------|----------------|
|-13--13---------|-13--13--13--13-|
|-12--12--13--13-|-12--12--12--12-|
|-13--13--12--12-|-13--13--13--13-|
|---------13--13-|----------------|

|----------------|----------------|
|----------------|----------------|
|----------------|----------------|
|-13--13--13--13-|-13--13--13--13-|
|-12--12--12--12-|-12--12--12--12-|
|-13--13--13--13-|-13--13--13--13-|

|----------------|----------------|
|----------------|----------------|
|-13--13--13--13-|-13--13---------|
|-12--12--12--12-|-12--12--13--13-|
|-13--13--13--13-|-13--13--12--12-|
|----------------|---------13--13-|
Comments