Theatre Of Tragedy - To These Words I Beheld No Tongue Chords & Tabs

 

To These Words I Beheld No Tongue Chords & Tabs

Theatre Of Tragedy Chords & Tabs

Version: 1 Type: Tab 0 ratings
1 star 2 stars 3 stars 4 stars 5 stars
comments

To These Words I Beheld No Tongue Tab

   
Tab to 'To these Words I beheld no Tongue"
By 'Theatre of Tragedy'
>From the album 'Theatre of Tragedy'
Transcribed by Roland de Graauw

Send suggestions or comment to graauw@pi.net

Normal Tuning

Riff A

e   [------------------------|-------------------------]
B   [------------------------|-------------------------]
G   [----------7-------------|----------7---10---------]
D   [-------7---------10--8--|-------7----------10--8--]
A   [--5-----------8---------|--5----------------------]
E   [------------------------|-------------------------]

     play 2x clean and 4x with distortion

Riff B

e   [--------------|--------------|--------------|--------------]
B   [--------------|--------------|--------------|--------------]
G   [--------7-----|--------7-----|--------5-----|--------5-----]
D   [-----7----(7)-|-----7----(7)-|-----5----(5)-|-----5----(5)-]
A   [--5--------*--|--5--------*--|--3--------*--|--3--------*--]
E   [--------------|--------------|--------------|--------------]

                *I believe only the bass plays this one,

                 though it may sound better if you do play it



     play 4x

Riff C
[ Tab from: http://www.guitartabs.cc/tabs/t/theatre_of_tragedy/to_these_words_i_beheld_no_tongue_tab.html ]
e   [-----------------|-----------------|-----------------|
B   [-----------------|-----------------|-----------------|
G   [-----------------|-----------------|-----------------|
D   [-----------------|-----------------|-----------------|
A   [-5-5-5-5-5-5-5-5-|-5-5-5-5-5-5-5-5-|-3-3-3-3-3-3-3-3-|
E   [-----------------|-----------------|-----------------|

e   |-----------------]            (I guess this should be
B   |-----------------]             powerchords on a guitar,
G   |-----------------]  play 4X    I play bass, maybe you
D   |-5-5-5-5-3-3-3-3-]             want to change them...)
A   |-----------------]
E   |-----------------]



play Riff B 2x

Riff D (not 100yڿڿڿڿڿڿۿ~ۿۿۿ	ܿ%ܿ7ܿ^ܿzܿܿܿܿݿ@ݿ^ݿxݿݿݿݿ
޿%޿m޿ure, but it's close)

e   [--------------------------------|-----------------------------]
B   [--------------------------------|-----------------------------]
G   [---------------5--5---7--5------|---------------5--5-5--7--5--]
D   [--------7--7---------------8-7--|--------7--7-----------------]
A   [-5--5---------------------------|-5--5------------------------]
E   [--------------------------------|-----------------------------]

     play 4x

play Riff A 4x

play Riff D 2x

play Riff B 4x

play Riff C 4x

play Riff B 2x (end with Fill)

End Fill

e   [---------------------]
B   [---------------------]
G   [--------5------------]
D   [-----5---------5--0--]
A   [--3---------3--------]
E   [---------------------]
Comments