Theatre Of Tragedy - Aoede Chords & Tabs

 

Aoede Chords & Tabs

Theatre Of Tragedy Chords & Tabs

Version: 1 Type: Bass Tab 0 ratings
1 star 2 stars 3 stars 4 stars 5 stars
comments

Aoede Bass Tab

   
Basstab to Aoede
By Theatre of Tragedy
Taken from the album Aegis

Transcribed by Roland de Graauw
Send comment, questions or requests to graauw@wxs.nl

Tune all strings down 1 step (D G C F)
Note that Eirik plays a 5-string, so it may occur that
I transcribe a part an octave higher...


Riff A
F   [------------------------------------------------------------]
C   [------------------------------------------------------------]
G   [--0-2--2-0-2--2-0-2--2-0-2--2-0-2--2-0-2--2-----------------]
D   [--------------------------------------------3-3--2-2-2--0-0-]


[ Tab from: http://www.guitartabs.cc/tabs/t/theatre_of_tragedy/aoede_btab.html ]
Riff B
F   [----------------------------------------------------------]
C   [----------------------------------------------------------]
G   [--0-2--2-0-2--2-0-2--2-0-2--2-0-2--2-0-2--2---------------]
D   [---------------------------------------------3----2----0--]



Riff C
F   [--------------------------------------------------------]
C   [--------------------------------------------------------]
G   [--------------------------------------------------------]
D   [--2---3--2----2---3--2----2---3--2----2-2--2--3-3--3-2--]



Riff D
F   [--------------------------------------------------------
C   [--------------------------------------------------------
G   [--2-2-2-2--2-2-2-2--2-2-2-2--2-2-2-2--5-5-5-5--5-5-5-5--
D   [--------------------------------------------------------


F   --------------------]
C   --------------------]
G   --7-7-7-7--7-7-7-7--]
D   --------------------]
Comments