The Wrights - Evie Part 1 Chords & Tabs

 

Evie Part 1 Chords & Tabs

The Wrights Chords & Tabs

Version: 3 Type: Tab 0 ratings
1 star 2 stars 3 stars 4 stars 5 stars
comments

Evie Part 1 Tab

   
-------------------------------------------------------------------------------
                          EVIE - The Wrights (solo)
-------------------------------------------------------------------------------
Tabbed by: Brendan Dunstan
Email: bobmarleydsn@hotmail.com

Tuning: Standard Tuning (EADGBe)


NOTE!!! Lots of this solo isnt exactly the same as Cheney's, some things i just couldnt
figure out - i dont claim this to be the exact solo, i know it isnt perfect - but it
does sound good when played as the solo. If anyone does know how the solo is actually
played it would be fantastic if you could tell me bobmarleydsn@hotmail.com, but
considering there was nothing at all on the net about the solo i figured this would be better then nothing :)


Guitar 1
 /-- play throughout solo-----------/
e|-12-12-12-12-12-12----------------|
B|-12-12-12-12-12-12--14--12--14--12|
G|--------------------14--12--14--12|
D|----------------------------------|
A|----------------------------------|
E|----------------------------------|

Guitar 2

e|-12-12-12-12-12-12----------------|-12-12-12-12-12-12----------------|
B|-12-12-12-12-12-12--14--12--14--12|-12-12-12-12-12-12--14--12--14--12|
G|--------------------14--12--14--12|--------------------14--12--14--12|
D|----------------------------------|----------------------------------|
A|----------------------------------|----------------------------------|
E|----------------------------------|----------------------------------|


e|-12-12-12-12-12-12----------------|-12-12-12-12-12-12----------------|
B|-12-12-12-12-12-12--14--12--14--12|-12-12-12-12-12-12--14--12--14--12|
G|--------------------14--12--14--12|--------------------14--12--14--12|
D|----------------------------------|----------------------------------|
A|----------------------------------|----------------------------------|
E|----------------------------------|----------------------------------|
[ Tab from: http://www.guitartabs.cc/tabs/t/the_wrights/evie_part_1_tab_ver_3.html ]
                                              (Let Ring)
e|----------------------------------|----------------------------------|
B|---15b17-15b17----15b17r15p12-15--|----------12----------------------|
G|----------------------------------|-14p12-14-12----------------------|
D|----------------------------------|----------------------------------|
A|----------------------------------|----------------------------------|
E|----------------------------------|----------------------------------|


e|----------------------------------|----------------------------------|
B|-12----12----12-------------------|----------------------------------|
G|-12-14-12----12-------------------|----------------------------------|
D|----------14----14-13-12----12----|--14-12---------------------------|
A|-------------------------14----14-|--------14-13-12-10-12-10----10---|
E|----------------------------------|--------------------------12------|

   (keep strumming and bending)       (keep strumming and bending)
e|-12-------------------------------|-12-------------------------------|
B|-12-------------------------------|-15b17----------------------------|
G|-14b16----------------------------|----------------------------------|
D|----------------------------------|----------------------------------|
A|----------------------------------|----------------------------------|
E|----------------------------------|----------------------------------|


e|----------------------------------|
B|12-12-15-12-12-15-12-12-15-12-1215|
G|12-12-14-12-12-14-12-12-15-12-1215|
D|----------------------------------|
A|----------------------------------|
E|----------------------------------|

   ( Played extremely fast)
e|-17p15p12--17p15p12--17p15p12--17p15p12--17p15p12-15|
B|---------15--------17--------15--------17-----------|
G|----------------------------------------------------|
D|----------------------------------------------------|
A|----------------------------------------------------|
E|----------------------------------------------------|


| /  slide up
| \  slide down
| h  hammer-on
| p  pull-off
| ~  vibrato
| +  harmonic
| x  Mute note
===============================================================================
Comments