The Wrights - Evie Part 1 Chords & Tabs

 

Evie Part 1 Chords & Tabs

The Wrights Chords & Tabs

Version: 1 Type: Tab 0 ratings
1 star 2 stars 3 stars 4 stars 5 stars
comments

Evie Part 1 Tab

   
this is the tab for evie part 1 origonally writen by stevie wright, and re-done by the
new rock band the wrights.
Intro
E|--------------------------------------------------------|
B|--------------------------------------------------------|
G|--------------------------------------------------------|
D|----2---------------------------------------------------|
A| ---2---------------------------------------------------|
E|----0---------------------------------------------------|
 



E|-------------------------------------------------------|
B|-------------------------------------------------------|
G|-------------------------------------------------------|
D|----2--------------------------------------------------|
A|----2--------------------------------------------------|
E|----0--------------------------------------------------|
 

 
 
Riff 1

E|--------------------------------------------------------|
B|--------------------------------------------------------|
G|--------------------------------------------------------|
D|------------------5-------------------------------------|
A|--------------5-7---7-----------------------------------|
E|----------5-7-------------------------------------------|

  
Chorus 1
  E-vie,    E-vie,   E-vie...   let-your, hair hang down.
E|--------------------------------------------------------------|
B|--------------------------------------------------------------|
G|--------------------------------------------------------------|
D|--------------------------------------------5-----------------|
A|5--7------5-7-----5---------5------5-----------7--5---------|
E|---------------------7----------7----------------------7-5-3-|

 

  

   E vie,        E vie,         Evie...    hang down
E|-----------------------------------------------------------|
B|-----------------------------------------------------------|
G|-----------------------------------------------------------|
D|-----------------------------------------5-----------------|
A|-5-7-----------57-------5---5---5----7-------------------|
E|---------------------------7---7---------------------------|
  

 
[ Tab from: http://www.guitartabs.cc/tabs/t/the_wrights/evie_part_1_tab.html ]
  E vie,[E]     E vie,[E]      Evie...    hang down            
E|---------------------------------------------------------------|
B|---------------------------------------------------------------|
G|-------9-------------9-----------------------------------------|
D|-------9-------------9----------------5------------------------|
A|5-7----7------57----7------5---5---5---7--5------------------|
E|------------------------------7---7------------7-5-3-0--------|

                                                            

  E vie,[E]     E vie,[E]     [D]           [A]   ...hair hang down           
E|----------------------------|--------------------------------|
B|----------------------------|--------------------------------|
G|-------9-------------9------|7-------------------------------|
D|-------9-------------9------|7-------------7-----------------|
A|5-7----7------57----7------|5-------------7-----------------|
E|----------------------------|--------------5-----------------|
  
                                                        
...got the body of a woman...
E|--------------------------------------------------------|
B|--------------------------------------------------------|
G|--------------------------------------------------------|
D|----2---------------------------------------------------|
A|----2---------------------------------------------------|
E|----0---------------------------------------------------|
 

End of CHORUS 2                                            
  E vie,[E]       E vie,[E]                            ...hang down
E|------------------------------|-----------------------------------|
B|------------------------------|-----------------------------------|
G|---------9--------------9-----|-----7-----------------------------|
D|---------9--------------9-----|-----7-------------7---------------|
A|-5-7-----7------5-7-----7-----|-----5-------------7---------------|
E|------------------------------|-------------------5---------------|

 
...down
[E] (Muted scratch)             
E|----------------------------------------------------------|
B|----------------------------------------------------------|
G|----------------------------------------------------------|
D|-----2----------------------------------------------------|
A|-----2----------------------------------------------------|
E|-----0----------------------------------------------------|

Solo

E|----------------------------------------------------------|
B|----12-12-12-12-12-12----10--8--10--8---------------------|	X 4
G|----------------------------------------------------------|
D|----------------------------------------------------------|
A|----------------------------------------------------------|
E|----------------------------------------------------------|

That's all I've figured out of the solo, sorry but it's a real hard solo.
Comments