The Wreckers - Hard To Love You Chords & Tabs

 

Hard To Love You Chords & Tabs

The Wreckers Chords & Tabs

Version: 1 Type: Chords

Hard To Love You Chords

   
Capo on third fret

Repeating Pattern:
   A:                           B:

E|-----3---2---0---------------------3---1/2---0---------------|
B|---3----3---3---3-1--0-----------3----3----3----3-1--0-------|
G|-0----------------------0------0------------------------0----|
D|-------------------------------------------------------------|
A|-------------------------------------------------------------|
E|-------------------------------------------------------------|

Intro:  Pattern  A + B

(verse 1)
(during verse):
e|--3----2----0----2-----|
B|-0-0--0-0--0-0--0-0----|
G|-----------------------|
D|-----------------------|
A|-----------------------|
E|-----------------------|

G           G/F#            Em
Why do they make it hard to love you?
G              G/F#          Em
Why can't they even start to try?
G            G/F#             Em
'Cause now I feel a bridge is burning
G           G/F#           Em
And all the smoke is in my eyes

Pattern B

(verse 2)
G           G/F#           Em
I realize I never let them know me
G        G/F#         Em
I always wanted to be right
G         G/F#           Em
Took a mistake to really show me
G       G/F#           Em
Exactly what they were like
[ Tab from: http://www.guitartabs.cc/tabs/t/the_wreckers/hard_to_love_you_crd.html ]
(chorus)
e|---------------------|
B|-5--7/8\7--5--3------|
G|---------------------|
D|---------------------|
A|---------------------|
E|---------------------|

          Cadd9     G/B       D
I've been wrong but I've been changing
          Cadd9     G/B     D
I've been wondering what to do
      Cadd9 G/B   Dsus  D Dm D  
Here I am alone and waiting
    G     G/F#    Em
For you

Pattern B

(verse 3)
G        G/F#              Em
Why do I try and make them happy?
G        G/F#           Em
Why am I always playing nice?
G        G/F#                Em
It isn't easy trying to tell you
G       G/F#           Em
Exactly what's on my mind

(chorus)
          Cadd9     G/B       D
I've been wrong but I've been changing
          Cadd9     G/B     D
I've been wondering what to do
      Cadd9 G/B   Dsus  D Dm D  
Here I am alone and waiting
    G     G/F#    Em
For you


--End on G--

Chords:

G  320033 	  	 G/F#  200033

Em  022000 	  	 Cadd9   x32033

G/B  x20033 	  	 D  xx0232

Dm  xx0231 	  	 Am  x02210