The Wreckers - Good Kind Chords & Tabs

 

Good Kind Chords & Tabs

The Wreckers Chords & Tabs

Version: 1 Type: Tab 0 ratings
1 star 2 stars 3 stars 4 stars 5 stars
comments

Good Kind Tab

tabbed by ~brittni~

*CAPO 2*

(first riff right after the 1st chorus)

e--------------------------------------------------------------------|
B--------------------------------------------------------------------|
G--------0--0--2--4--7--7--9--0--------0--2--4bend--2--0-------------|
D--0--0--------------------------0--0--------------------------------|
A--------------------------------------------------------------------|
E--------------------------------------------------------------------|

(riff after 2nd chorus)
[ Tab from: http://www.guitartabs.cc/tabs/t/the_wreckers/good_kind_tab.html ]
e--------------------------------------------------------------------|
B--------------------------------------------------------------------|
G--------0--0--2--4--7--7--9--0--------0--2--4--4--2--2--0--0--------|
D--0--0--------------------------0--0--------------------------------|
A--------------------------------------------------------------------|
E--------------------------------------------------------------------|


(riff after the chorus after the bridge)

e---------------------------------------------------------------------|
B---------------------------------------------------------------------|
G---------------------------------------------------------------------|
D--5bend--4--2---0----------------------------------------------------|
A---------------------------------------------------------------------|
E---------------------------------------------------------------------|
  (^repeat this riff through rest of song when called for^)


*there.   not too difficult once u get the hang of it.*
Comments