The Wonder Years - Dismantling Summer Chords & Tabs

 

Dismantling Summer Chords & Tabs

The Wonder Years Chords & Tabs

Version: 1 Type: Bass Tab 0 ratings
1 star 2 stars 3 stars 4 stars 5 stars
comments

Dismantling Summer Bass Tab

   
Intro
F#-----------------|
C#-22~~------------| X4
G#-----22~~00~~~~~~|
C#-----------------|


Bass comes in again around 0:34
F#-----------------|
C#-----------------|
G#-----------------|
C#-4444444477777777|


'I'm filling your prescriptions...'
F#-9~~~----------9-9~~~----------11139~~~----------9-9~~~------------|
C#-----9~~~7~~~~9-9----9~~~7~~~~9--------9~~~7~~~~9-9----9~~~7~~~~~~~|
G#-------------------------------------------------------------------|
C#-------------------------------------------------------------------|


'We're all waiting for good news...'
F#-------------------------------------------------|
C#-------------------------------------------------|
G#-0000000022222222--------00000000--------00000000|
C#-----------------22222222--------44444444--------|


'I've been acting like I'm strong...'
F#-----------------------------------------|
C#-----------------------------------------|
G#-----------------------------------------|
C#-22222222777777/9111111111111111199999999|


'To a hospital too crowded...'
F#-----------------------------------------|
C#-----------------------------------------|
G#-----------------------------------------|
C#-4444777722229999444477779999999944447777|


Interlude
F#-----------------|
C#-22~~------------| X2
G#-----22~~00~~~~~~|
C#-----------------|


'I grew up on your back porch...'
F#------------------------------------------------------------------|
C#-2~~~----------462~~~------------2~~~----------462~~~-------------|
G#-----2~~~0~~~~2------2~~~0~~~~~~~----2~~~0~~~~2------2~~~/12~~~~~~|
C#------------------------------------------------------------------|

[ Tab from: http://www.guitartabs.cc/tabs/t/the_wonder_years/dismantling_summer_btab.html ]
'I've been putting off long flights...'
F#-------------------------------------------------|
C#-------------------------------------------------|
G#-0000000022222222--------00000000--------00000000|
C#-----------------22222222--------44444444--------|


'I've been acting like I'm strong...'
F#-----------------------------------------|
C#-----------------------------------------|
G#-----------------------------------------|
C#-22222222777777/9111111111111111199999999|


'To a hospital too crowded...'
F#-----------------------------------------|
C#-----------------------------------------|
G#-----------------------------------------|
C#-4444777722229999444477779999999944447777|


'If I'm in an airport...'
F#-----------------------------|
C#-----------------------------| X2
G#-----------------------------|
C#-2222-2229999-9446666----7777|

F#---------------------------------|
C#---------------------------------|
G#---------------------------------|
C#-2222-2229999-9446666666677777777|


'I've been acting like I'm strong...'
F#---------------------------------------------------------------------------|
C#---------------------------------------------------------------------------|
G#---------------------------------------------------------------------------|
C#-2~~~2~~~7~~~7~/911~~~11~~~9~~~9~~~4~~~7~~~2~~~9~~~4~~~7~~~9~~~~~~~4~~~7~~~|


'Hadn't felt a heartbreak until now...'
F#---------------------------------------------------------------------------------|
C#---------------------------------------------------------------------------------|
G#---------------------------------------------------------------------------------|
C#-22222222777777772222222277777777444477772222999944447777999999994~~~7---2~~~~~~~|
Comments