The Wonder Years - All My Friends Are In Bar Bands Chords & Tabs

 

The Wonder Years Chords & Tabs

Version: 2 Type: Tab 0 ratings
1 star 2 stars 3 stars 4 stars 5 stars
comments

All My Friends Are In Bar Bands Tab

   
Verse part 1\
Eb||-5~-2~-5~-|
Bb||-3~-2~-3~-|
Gb||-2~-0~-0~-| X2
Db||-0~-0~-2~-|
Ab||-0~-0~-0~-|
Db||-0~-0~-0~-|
Verse part 2
Eb||-5-----------------------------------------|
Bb||---5-7-3~----3/7-5-3~-----3/5-7-7-3~----5~-|
Gb||-------------------------------------------| X2
Db||-------------------------------------------|
Ab||-------------------------------------------|
Db||-------------------------------------------|
Pre Chorus
Eb||---------10-------------------------|
Bb||-----7------7---7-10-----10---------|
Gb||-7/9---9------9------7------7---7---|
Db||-----------------------7------7---7-|
Ab||------------------------------------|
Db||------------------------------------|

Eb||---------10------------------|
Bb||-----7------7---7-------10---|
Gb||-7/9---9------9---6/7-9----9-|
Db||-----------------------------|
Ab||-----------------------------|
Db||-----------------------------|

Eb||---------10-------------------------|
Bb||-----7------7---7-10-----10---------|
Gb||-7/9---9------9------7------7---7---|
Db||-----------------------7------7---7-|
Ab||------------------------------------|
Db||------------------------------------|

Eb||---------10-----10-----10-----10-|
Bb||-----7------7------7------7------|
Gb||-7/9---9------9------9------9----|
Db||---------------------------------|
Ab||---------------------------------|
Db||---------------------------------|



Chorus
Eb||---------------------|
Bb||---------------------|
Gb||---------------------|
Db||-0~-2~-5~--0~-2~-5~--|
Ab||-0~-2~-5~--0~-2~-5~--|
Db||-0~-2~-5~--0~-2~-5~--|

Eb||----------------------------------------------------------------------------|
Bb||----------------------------------------------------------------------------|
Gb||-7-7-11-9-9-11-9-9--7~--6-7-7-11-9-9-11-9-9--7~--6-7-7-7-7-9-9-9-9-12-12-14-|
Db||-x-x--x-x-x--x-x-x--x~--x-x-x--x-x-x--x-x-x--x~--x-x-x-x-x-x-x-x-x--x--x--x-|
Ab||-5-5--9-7-7--9-7-7--5~--4-5-5--9-7-7--9-7-7--5~--4-5-5-5-5-7-7-7-7-10-10-12-|
Db||----------------------------------------------------------------------------|
Ending riff of the chorus
Eb||-5----------------------5-------------------------------|
Bb||---5-5/7-3-3/7-5-3-5-3----5-5/7-3-3/7-5-3-5-7-5-7-5-7-5-|
Gb||--------------------------------------------------------|
Db||--------------------------------------------------------|
Ab||--------------------------------------------------------|
Db||--------------------------------------------------------|

Verse two
Eb||---2-------------0-----|
Bb||-----3---------3---3---|
Gb||-----------0-2-------2-| X2
Db||-----------------------|
Ab||-----------------------|
Db||-0~--------------------|

Pre Chorus
Eb||---------10-------------------------|
Bb||-----7------7---7-10-----10---------|
Gb||-7/9---9------9------7------7---7---|
Db||-----------------------7------7---7-|
Ab||------------------------------------|
Db||------------------------------------|

Eb||---------10------------------|
Bb||-----7------7---7-------10---|
Gb||-7/9---9------9---6/7-9----9-|
Db||-----------------------------|
Ab||-----------------------------|
Db||-----------------------------|
[ Tab from: http://www.guitartabs.cc/tabs/t/the_wonder_years/all_my_friends_are_in_bar_bands_tab_ver_2.html ]
Eb||---------10-------------------------|
Bb||-----7------7---7-10-----10---------|
Gb||-7/9---9------9------7------7---7---|
Db||-----------------------7------7---7-|
Ab||------------------------------------|
Db||------------------------------------|

Eb||---------10-----10-----10-----10-|
Bb||-----7------7------7------7------|
Gb||-7/9---9------9------9------9----|
Db||---------------------------------|
Ab||---------------------------------|
Db||---------------------------------|

Chorus
Eb||---------------------| Bb||---------------------| Gb||---------------------| Db||-0~-2~-5~--0~-2~-5~--| Ab||-0~-2~-5~--0~-2~-5~--| Db||-0~-2~-5~--0~-2~-5~--| Eb||----------------------------------------------------------------------------| Bb||----------------------------------------------------------------------------| Gb||-7-7-11-9-9-11-9-9--7~--6-7-7-11-9-9-11-9-9--7~--6-7-7-7-7-9-9-9-9-12-12-14-| Db||-x-x--x-x-x--x-x-x--x~--x-x-x--x-x-x--x-x-x--x~--x-x-x-x-x-x-x-x-x--x--x--x-| Ab||-5-5--9-7-7--9-7-7--5~--4-5-5--9-7-7--9-7-7--5~--4-5-5-5-5-7-7-7-7-10-10-12-| Db||----------------------------------------------------------------------------| Eb||-------------------------------3-3-3-3--3-3-3-5-5-5-5--5-5-5-| Bb||-3-3-3-3--3-3-3-3-3-3-3--3-3-3-------------------------------| Gb||-------------------------------------------------------------| Db||-------------------------------------------------------------| Ab||-------------------------------------------------------------| Db||-------------------------------------------------------------| Eb||------------------------------------------------------------| Bb||------------------------------------------------------------| Gb||------------------------------------------------------------| Db||-0-0-0-0--0-0-0-0-0-0-0--0-0-0-5-5-5-5--5-5-5-7-7-7--7-7-7--| Ab||------------------------------------------------------------| Db||------------------------------------------------------------| Eb||----------------------------------------5-5-5-5-5-5-5-5-5-5-| Bb||-3-5-3-3--2-3-2-3-5-3-3--2-3-2-3-5-3-3----------------------| Gb||------------------------------------------------------------| Db||------------------------------------------------------------| Ab||------------------------------------------------------------| Db||------------------------------------------------------------| Eb||-----------------------------------------------------------| Bb||-----------------------------------------------------------| Gb||-----------------------------------------------------------| Db||-0-0-0-0--0-0-0-0-0-0-0--0-0-0-5-5-5-5--5-5-5-7-7-7--7-7-7-| Ab||-0-0-0-0--0-0-0-0-0-0-0--0-0-0-5-5-5-5--5-5-5-7-7-7--7-7-7-| Db||-0-0-0-0--0-0-0-0-0-0-0--0-0-0-5-5-5-5--5-5-5-7-7-7--7-7-7-| Eb||-----------------------------------------------------------| Bb||-----------------------------------------------------------| Gb||-----------------------------------------------------------| X2 Db||-0-0-0-0-0-0-0-0-0-0-0-0-0-0-5-5-5-5-5-5-5-5-7-7-7-7-7-7-7-| Ab||-0-0-0-0-0-0-0-0-0-0-0-0-0-0-5-5-5-5-5-5-5-5-7-7-7-7-7-7-7-| Db||-0-0-0-0-0-0-0-0-0-0-0-0-0-0-5-5-5-5-5-5-5-5-7-7-7-7-7-7-7-| End On Eb||-5~~~~ Bb||-3~~~~ Gb||-2~~~~ Db||-0~~~~ Ab||-0~~~~ Db||-0~~~~
Comments