The Wonder Years - All My Friends Are In Bar Bands Chords & Tabs

 

All My Friends Are In Bar Bands Chords & Tabs

The Wonder Years Chords & Tabs

Version: 1 Type: Tab

All My Friends Are In Bar Bands Tab

   
-----------------------------------------------------------------------------
-            ALL MY FRIENDS ARE IN BAR BANDS - The Wonder Years
-----------------------------------------------------------------------------

Tabbed by: JoshDropD
Email: josh.defibaugh.g@gmail.com

Tuning: Drop C# (C#G#C#F#A#D#)

These are my interpretations of the chords used in this song.  I have no idea if they 
are correct but they sound good to me.

The chords in the first verse are the chords for the electric guitar in the background 
and the lead light acoustic guitar in the foreground.


Jack says he loves the winters here cause these are days when...
D#|-5~-|
A#|-3~-|
F#|-2~-|
C#|-0~-|
G#|----|
C#|----|

everyone's as miserable as him.
D#|-3~-|
A#|-3~-|
F#|-0~-|
C#|-0~-|
G#|----|
C#|----|

D#|-5~-|
A#|-3~-|
F#|-2~-|
C#|-2~-|
G#|-0~-|
C#|----|

Josh says it smells like cheap beer and loathing here It could be the van But it's
D#|-5~-|
A#|-3~-|
F#|-2~-|
C#|-0~-|
G#|----|
C#|----|

probably just his breath.
D#|-3~-|
A#|-3~-|
F#|-0~-|
C#|-0~-|
G#|----|
C#|----|

D#|-5~-|
A#|-3~-|
F#|-2~-|
C#|-2~-|
G#|-0~-|
C#|----|

Max dropped out of college,
D#|-5~-|
A#|-3~-|
F#|-2~-|
C#|-0~-|
G#|----|
C#|----|

He likes to say he finished
D#|-3~-|
A#|-3~-|
F#|-0~-|
C#|-0~-|
G#|----|
C#|----|

Hes working back home with his dad
D#|-5~-|
A#|-3~-|
F#|-2~-|
C#|-2~-|
G#|-0~-|
C#|----|

He and Kevin got matching tatoos of their
D#|-5~-|
A#|-3~-|
F#|-2~-|
C#|-0~-|
G#|----|
C#|----|

initials
D#|-3~-|
A#|-3~-|
F#|-0~-|
C#|-0~-|
G#|----|
C#|----|

three x's down their
D#|-5~-|
A#|-3~-|
F#|-2~-|
C#|-2~-|
G#|-0~-|
C#|----|

legs
D#|-5~-|
A#|-3~-|
F#|-2~-|
C#|-0~-|
G#|----|
C#|----|

(I have no idea for the next few lines of lyrics)
Well I've got like minded dudes in Detroit or Vancouver
Newport, Boca, and Brum
I don't know where I am but I know where I came from
[ Tab from: http://www.guitartabs.cc/tabs/t/the_wonder_years/all_my_friends_are_in_bar_bands_tab.html ]
So everyone moved in with their girlfriends
D#|-------------------------|
A#|-------------------------|
F#|-2------4------7---------|
C#|-0------2------5---------|
G#|-0------2------5---------|
C#|-0------2------5---------|x4

And still there's some days
D#|--------------------|
A#|--------------------|
F#|--------------------|
C#|-9-9-9-9-7-7-7-7-5~-|
G#|-9-9-9-9-7-7-7-7-5~-|
C#|-9-9-9-9-7-7-7-7-5~-|

The next verse is still a little shaky, what I do is just riff and freestyle in C# major 
(it's easy because we are tunded to it)

Justin's working three jobs just to stay ahead
Spiro lied about his major
But it's working out for him
Nick and Richie got a place together by the train station
I spent twenty two years just wading through bullshit
Hey, it's worked so far
I don't know why I'm here, but I know who my friends are

So everyone moved in with their girlfriends
D#|-------------------------|
A#|-------------------------|
F#|-2------4------7---------|
C#|-0------2------5---------|
G#|-0------2------5---------|
C#|-0------2------5---------|x4

And still there's some days
D#|--------------------|
A#|--------------------|
F#|--------------------|
C#|-9-9-9-9-7-7-7-7-5~-|
G#|-9-9-9-9-7-7-7-7-5~-|
C#|-9-9-9-9-7-7-7-7-5~-|

I'm not sad anymore... I could not figure out the timing, but listen to it
(extremely LOUD)
D#|--------------------------------------------------------|
A#|--------------------------------------------------------|
F#|--------------------------------------------------------|
C#|-0-0-0-0--00-0-0-0-0--0-0-0-0-5-5-5-5-5-5-5-7-7-7-7--777|
G#|-0-0-0-0--00-0-0-0-0--0-0-0-0-5-5-5-5-5-5-5-7-7-7-7--777|
C#|-0-0-0-0--00-0-0-0-0--0-0-0-0-5-5-5-5-5-5-5-7-7-7-7--777|x3

(Just vocals)
If this year would just end, I'd think we'd all be okay

End chord (The loudest chord possible, without breaking the strings)
D#|-5-|
A#|-3-|
F#|-2-|
C#|-0-|
G#|-0-|
C#|-0-|

****************

~=Hold note

****************