The Wombats - Jump Into The Fog Chords & Tabs

 

Jump Into The Fog Chords & Tabs

The Wombats Chords & Tabs

Version: 1 Type: Bass Tab

Jump Into The Fog Bass Tab

Tuning: standard 
 


intro start at 0.15 x2
G|---------------------------------------------------------------------------|
D|---9-----4------7----------------6--------4--------7-----------------------|
A|------------------------7-------------------------------------7------------|
E|---------------------------------------------------------------------------|
[ Tab from: http://www.guitartabs.cc/tabs/t/the_wombats/jump_into_the_fog_btab.html ]
main riff start at 0.27 x4 
G|----------------------------9-9------9------9-11-9-------------------------|
D|-----9-9-----11-----11------------------------------11---------------------| 
A|---------------------------------------------------------------------------|
E|---------------------------------------------------------------------------|

then repeat intro x2 

i haven't worked out the rest yet but will soon