The Wohlstandskinder - Als Du Am Boden Lagst Chords & Tabs

 

Als Du Am Boden Lagst Chords & Tabs

The Wohlstandskinder Chords & Tabs

Version: 1 Type: Bass Tab 0 ratings
1 star 2 stars 3 stars 4 stars 5 stars
comments

Als Du Am Boden Lagst Bass Tab

   
Artist: Wohlstandskinder
Song: Als du am Boden lagst
Album: Für Recht und Ordnung
http://www.wohlstandskinder.de
Tabber ElExar@freenet.de
Tuning: EADG
Basstab


ElExar@freenet.de

Intro / Verse

S = Slide

E|----------------------------------|
A|-17s-3-1-5-6-6-8-10-11-7-8-6-5-4--|
D|----------------------------------|
G|----------------------------------|

Du versuchst gelegentlich....

E|--------------------------------------|
A|-3-1-5-6-6-8-10-11-8-7-6-5-4-11111111-|
D|--------------------------------------|
G|--------------------------------------|
[ Tab from: http://www.guitartabs.cc/tabs/t/the_wohlstandskinder/als_du_am_boden_lagst_btab.html ]
So schön es einmal war...

Refrain

E|-11111---------------|
A|-------44444--11111--|
D|---------------------|
G|---------------------|

Dein Wille kämpft...


Bridge:

E|-----------------------|
A|-6-1--3----------------|
D|-------3--1---1-8------|
G|-----------1---8-------|


E|------------------------|
A|-6-1--3-----------------|
D|-------3----------------|
G|------------------------|

 // -> bla, irgendnen dummer lauf


E|-----------------------|
A|-5-3-------5-----------|
D|-----3--5--------------|
G|-----------------------|

Ein Andrer kommt..

======================
Comments