The Walls - To The Bright And Shining Sun Chords & Tabs

 

To The Bright And Shining Sun Chords & Tabs

The Walls Chords & Tabs

Version: 1 Type: Tab 0 ratings
1 star 2 stars 3 stars 4 stars 5 stars
comments

To The Bright And Shining Sun Tab

   
Alrighty then......The Walls are a Dublin based band propelled by the Wall bros., Steve and Joe.
Excellent power pop tune, should be learnt and played at all parties.
Lads, if ye read this, haul ass back Derry way......g'luck

check out  www.thewalls.ie


This version is taken from a solo acoustic version performed by Steve Wall at Witnness 2002..rock on

Intro:

e----------------------------------------------------------------------
b----------------------------------------------------------------------
g----------------------------------------------------------------------
d------4--------4---------4-----------4--------------------------------
a-------------------------------------------7------5-------------------
e---3------3---------3---------3-------------------------7-------------

[ Tab from: http://www.guitartabs.cc/tabs/t/the_walls/to_the_bright_and_shining_sun_tab.html ]
e----------------------------------------------------------------------
b----------------------------------------------------------------------
g----------------------------------------------------------------------
d-----4------4------4-------4----------5----5----5-----5---------------
a--3-----3------3-------3-------3-------(3)--(3)---(3)-----------------
e----------------------------------------------------------------------

e---------------------------------------------------------------------
b---------------------------------------------------------------------
g---------------------------------------------------------------------
d------4--------4---------4-----------4-------------------------------
a-------------------------------------------7------5------------------
e---3------3---------3---------3-------------------------7------------


e----------------------------------------------------------------------
b----------------------------------------------------------------------
g----------------------------------------------------------------------
d-----4------4------4-------4----------5----5----5-----5---------------
a--3-----3------3-------3-------3-------(3)--(3)---(3)-----------------
e----------------------------------------------------------------------

Verse: G - C
Bridge:D - C
Chorus:G - D - C - Am

enjoy
Sig
x

This tab is dedicated to Caroline, Isabel, Conor Brogan(Omagh) and City Colts F.C.
Comments