The Waking Eyes - Watch Your Money Chords & Tabs

 

Watch Your Money Chords & Tabs

The Waking Eyes Chords & Tabs

Version: 1 Type: Tab 0 ratings
1 star 2 stars 3 stars 4 stars 5 stars
comments

Watch Your Money Tab

   
---------------------------------------------------------------------------
		     WATCH YOUR MONEY - The Waking Eyes
---------------------------------------------------------------------------

Tabbed by: Tyler Greig 
Email: gtheleadguitarist@hotmail.com

Tuning: Standard (EADGBe). Go ahead and play it drop d if you want.

| /  slide up
| \  slide down
| h  hammer-on
| p  pull-off
| ~  let ring
| *  harmonic
| x  Mute note
| v  vibrato
| b  bend
| ( and )  optional notes


Intro/verse
e|------------------------------------|
B|------------------------------------|
G|------------------------------------|
D|-2-2-3-4-4-4-4-4-4-4-4-4-4-4-4-4-4--|
A|-0-0-1-2-2-2-2-2-2-2-2-2-2-2-2-2-2--|
E|------------------------------------|x8, on 8th time, gradually release PM.
PM         . . . . . . . . . . . . . 


Intro lead
e|----------------------|
B|---------6br-----4----|
G|-2-2/4/6-6br-----4v---|
D|----------------------|
A|----------------------|
E|----------------------|
           ^^ bend and release slowly, while picking many times

Chorus
   Watch your money, Watch your money      Watch your money
e|-----------------------------------------------------------------------|
B|-----------------------------------------------------------------------|
G|--9-----9---9-9-----7-----7---------------9-----9----9-9-----7-7-------|
D|--9-----9---9-9-----7-----7----7-7--6/7---9-----9----9-9-----7-7---7-7-|
A|--7-----7---7-7-----5-----5----7-7--6/7---7-----7----7-7-----5-5---7-7-|
E|-------------------------------5-5--4/5----------------------------5-5-|
                                      ^^^could just be bass, but sounds cool on guitar
   
     Everybody       Wants your money       Watch your money
e|-----------------------------------------------------------------------|
B|-----------------------------------------------------------------------|
G|---9--9--9-9--------7-----7----------------9-----9---9-9-9--7----------|
D|---9--9--9-9--------7-----7----7-7--6/7----9-----9---9-9-9--7----------|
A|---7--7--7-7--------5-----5----7-7--6/7----7-----7---7-7-7--5----------|
E|-------------------------------5-5--4/5--------------------------------|


Verse x6


Pre-verse lead
e|-----------------------------------|
B|---------6br-6-6-6-6-6-6------2-4--|
G|-2-2/4/6-6br-6-6-6-6-6-6-4v~--2-4--|
D|-----------------------------------|
A|-----------------------------------|
E|-----------------------------------|
           ^^ bend and release slowly while picking a few times

Chorus, let final chord ring


Bridge
e|---------------------|--------------------------------------|
B|---------------------|--------------------------------------|
G|---------------------|--------------------------------------|
D|-4~--2/7~--/9~--/12~-|-4--4-4---7--7-7---9--9-9---12--12-12-|
A|-2~--0/5~--/7~--/10~-|-2--2-2---5--5-5---7--7-7---10--10-10-|
E|---------------------|--------------------------------------|

e|-------------------------|-----------------------------|
B|-------------------------|-----------------------------|
G|-------------------------|-----------------------------|
D|-4-4-4-4-4-4-4-4-4-4-4-4-|-2-2-3-4-4-4-4-4-4-4-4-4-4-4-|
A|-2-2-2-2-2-2-2-2-2-2-2-2-|-0-0-1-2-2-2-2-2-2-2-2-2-2-2-|
E|-------------------------|-----------------------------|repeat 2nd part as necessary
PM   . . . . . . . . . . .           . . . . . . . . . .


Solo (listen to the song, i'm not worrying much about tabbing timing here)
e|-------------------------------------------------------------------------|
B|---------------6-----8-------12----15b16-15b15.5v--12--------14br-14br---|
G|------7-9----7-6-------------12-----------------------14-11--14br-14br-11|
D|-7-10-----6------7h8---9--12---------------------------------------------|
A|-------------------------------------------------------------------------|
E|-------------------------------------------------------------------------|

e|-------------------------------------------------------------------------|
B|--------------------------------------15-------15-------15-------15------|
G|-11-11-9-9-9-7-7-7-7-6-6-6-6-6-6-6-6-----13-------13-------13-------13---|
D|--------------------------------------------13-------13-------13-------13|
A|-------------------------------------------------------------------------|
E|-------------------------------------------------------------------------|
[ Tab from: http://www.guitartabs.cc/tabs/t/the_waking_eyes/watch_your_money_tab.html ]
e|---------------------------------------------------|
B|-15-15b16r15-15--------15--------------------------|
G|----------------13--------13-----------------------|
D|-------------------13--------13-9-9p8p7---7-9-8-7--|
A|----------------------------------------9----------|
E|---------------------------------------------------|

e|------------------------------------------------------|
B|-15--------15--------15--------15--------15-15b16r15--|
G|----13--------13--------13--------13------------------|
D|-------13--------13--------13--------13---------------|
A|------------------------------------------------------|
E|------------------------------------------------------|

e|-----------------------------------|
B|-15--------------------------------|
G|----13------------9-9-9-9-9-9-9-9--|
D|-------13-9-9-9-9-9-9-9-9-9-9-9-9--|
A|-----------------------------------|
E|-----------------------------------| 


Final Chorus
Chorus
   Watch your money, Watch your money      Watch your money
e|-----------------------------------------------------------------------|
B|-----------------------------------------------------------------------|
G|--9-----9---9-9-----7-----7---------------9-----9----9-9-----7-7-------|
D|--9-----9---9-9-----7-----7----7-7--6/7---9-----9----9-9-----7-7---7-7-|
A|--7-----7---7-7-----5-----5----7-7--6/7---7-----7----7-7-----5-5---7-7-|
E|-------------------------------5-5--4/5----------------------------5-5-|
                                      ^^^could just be bass, but sounds cool on guitar
   
     Everybody       Wants somebody       Everybody
e|-----------------------------------------------------------------------|
B|------------------------------------------------------(77-77-7)--------|
G|---9--9--9-9--------7-----7--------------9-9-9-9-9--7--77-77-7---------|
D|---9--9--9-9--------7-----7--7-7--6/7----9-9-9-9-9--7--99-99-9---------|
A|---7--7--7-7--------5-----5--7-7--6/7----7-7-7-7-7--5------------------|
E|-----------------------------5-5--4/5----------------------------------|


   Watch your money, Watch your money      Watch your money
e|-----------------------------------------------------------------------|
B|-----------------------------------------------------------------------|
G|--9-----9---9-9-----7-----7---------------9-----9----9-9-----7-7-------|
D|--9-----9---9-9-----7-----7----7-7--6/7---9-----9----9-9-----7-7---7-7-|
A|--7-----7---7-7-----5-----5----7-7--6/7---7-----7----7-7-----5-5---7-7-|
E|-------------------------------5-5--4/5----------------------------5-5-|
                                      ^^^could just be bass, but sounds cool on guitar

     Everybody    Wants somebody   Watch your money
e|-----------------------------------------------------------------------|
B|-----------------------------------------------------------------------|
G|---9--9-9-9-----7------7-----------9----9----9-9----7--7---------------|
D|---9--9-9-9-----7------7---7-7-----9----9----9-9----7--7---7--7--------|
A|---7--7-7-7-----5------5---7-7-----7----7----7-7----5--5---7--7--------|
E|---------------------------5-5-----------------------------5--5--------|


Bridge
e|---------------------|
B|---------------------|
G|---------------------|
D|-4~--2/7~--/9~--/12~-|
A|-2~--0/5~--/7~--/10~-|
E|---------------------|x2


Outro
e|-------------------------|-----------------------------|
B|-------------------------|-----------------------------|
G|-------------------------|-----------------------------|
D|-4-4-4-4-4-4-4-4-4-4-4-4-|-2-2-3-4-4-4-4-4-4-4-4-4-4-4-|
A|-2-2-2-2-2-2-2-2-2-2-2-2-|-0-0-1-2-2-2-2-2-2-2-2-2-2-2-|
E|-------------------------|-----------------------------|repeat 2nd part as necessary
PM   . . . . . . . . . . .           . . . . . . . . . .

Outro solo
e|----------------------------------------------------------------------|
B|-15--------15--------15-------15-------15-15b16r15-15--------15-------|
G|----13--------13--------13-------13-------------------13--------13----|
D|-------13--------13--------13-------13-------------------13--------13 |
A|----------------------------------------------------------------------|
E|----------------------------------------------------------------------|

e|----|------------------|
B|----|------------------|
G|----|------------------|
D|-9~-|-9p8p7---7-9-8-7--|
A|----|-------9----------|
E|----|------------------| x2
Only play the part after the bar the first time.



End with:
e|----------|
B|----------|
G|----------|
D|-2-2-3-4~-|
A|-0-0-1-2~-|
E|----------|
One guitar lets the final chord ring, the other guitar slides down.

I've seen this band play this song live, but I'll admit I wasn't really paying attention to what the
guitarists were doing, but this sounds really close to me. Email me with any improvements.

============================================================================
Comments