The Von Bondies - Cmon Cmon Chords & Tabs

 

Cmon Cmon Chords & Tabs

The Von Bondies Chords & Tabs

Version: 1 Type: Tab 1 rating
1 star 2 stars 3 stars 4 stars 5 stars
comments

Cmon Cmon Tab

#----------------------------------PLEASE NOTE---------------------------------#
#This file is the author's own work and represents their interpretation of the #
#song. You may only use this file for private study, scholarship, or research. #
#------------------------------------------------------------------------------#
-------------------------------
The Von Bondies - C'mon C'mon
-------------------------------


Tuning: Standard [EADGBe]

Guitar 1

Intro:/verse /chorus /bridge /outro 
e|---------------------------------------------------------------|
B|---------------------------------------------------------------|
G|---------------------------------------------------------------|
D|---------------------------------------------------------------|
A|2--3-3---5--7-7------------------2--3-3--5--7-7----------------|
E|----------------3--5-5--3--5-5-----------------3--5-5--3--5-5--|
(X2)
PM...............................................................

[ Tab from: http://www.guitartabs.cc/tabs/t/the_von_bondies/cmon_cmon_tab.html ]
e|---------------------------------------------------------------|
B|---------------------------------------------------------------|
G|---------------------------------------------------------------|
D|---------------------------------------------------------------|
A|2--3-3---5--7-7--------------------------------7-7-7--7-7-7----|
E|----------------3--5-5--3--5-5---1-1-1--3-3-3------------------|
(X1)
PM...............................................................


Guitar 2

Verse

e|-----------------------------------------------------------|
B|-----------------------------------------------------------|
G|----------9-9-----------------------------------99-999-----|
D|---10-10--9-9--5/77--5/77-----------4-33---55---99-999-----|
A|---10-10--7-7--5/77--5/77-x3--------4-33---55---77-777-----|
E|----8--8-------3/55--3/55-----------2-11---33--------------|

Chorus

e|----------------------------------------------------------|
B|----------------------------------------------------------|
G|----------9-9----------------------------------99-999-----|
D|---10-10--9-9--5/77--5/77----------4-33---55---99-999-----|
A|---10-10--7-7--5/77--5/77-x3-------4-33---55---77-777-----|
E|-7--8--8-------3/55--3/55----------2-11-0-33-0------------|



Song Order: Intro
            Chorus x3 
            Intro  - played as bridge
            Chorus - again played many times
            Intro  - played as Outro 
            Chrous - First Line Only
Comments