The Verve Pipe - The Freshman Chords & Tabs

 

The Freshman Chords & Tabs

The Verve Pipe Chords & Tabs

Version: 1 Type: Tab 0 ratings
1 star 2 stars 3 stars 4 stars 5 stars
comments

The Freshman Tab

Intro:
e-|----------------|---------5------|----------------------------|----------------------------------------
B-|---------7------|----------------|---------------------------2|----------------------------2-----------
G-|-----9-----9---9|-----6-----6---6|-----6--------4--------2----|-----6--------4---------2---------------
D-|---9---9-----9--|---7---7-----7--|---6---6----4---4----2---2--|---6---6----4---4-----2---2-------------
A-|-7--------------|----------------|-4--------2--------0--------|-4--------2---------0-------------------
E-|----------------|-5--------------|----------------------------|----------------------------------------

[ Tab from: http://www.guitartabs.cc/tabs/t/the_verve_pipe/the_freshman_tab.html ]
the whole song is played like this until you get to the chorus which uses these chords(they may not but right 
but they sound like it 2 me.)
e|-------------------------------------------------------------------------------------------------------
B|----------6--------------------------------------------------------------------------------------------
G|-9--------7-------6------4----2------4-----------------------------------------------------------------
D|-9(x4) ---0(x4)---6(x3)--4----2------4-----------------------------------------------------------------
A|-7--------5-------4------2----0(x3)--2-----------------------------------------------------------------
E|-------------------------------------------------------------------------------------------------------
Go back to top after you have done these chords, these two little tabs are pretty much the entire song...
 
Repeat twice for chorus but at the ending there is more strumming so just listen to the song and u should 
get it fairly easily.

If you have n e questions e-mail me tanner2007@lycos.com or i have AOL and AIM my s/n is studly5425 so 
instant message me sometime and i might can help you.    later


-Tanner
Comments