The Veronicas - Heavily Broken Chords & Tabs

 

Heavily Broken Chords & Tabs

The Veronicas Chords & Tabs

Version: 1 Type: Tab

Heavily Broken Tab

   
hey peoples! this is only my secound tab that i have submitted. if you want, you can go 
a look at my other one (not pretty enough by kasey chambers) by looking up my user name 
da ultimate guitar thang. hope you lyk dis 1 pepz! thanx
ashleigh xox


e|-------------------------3-----------------------------------------------|
B|-----------3----------------------------3----------------------------3---|
G|-----0-----------0--------------0--------------0-------------0-----------|
D|-------------------------------------------------------------------------|
A|-3----------------------------------------------------3------------------|
E|-------------------------------------------------------------------------|

e|---------3-----------------------------------------------------------3---|
B|------------------------3----------------------------3-------------------|
G|-0--------------0--------------0-------------0--------------0------------|
D|-------------------------------------------------------------------------|
A|--------------------------------------2----------------------------------|
E|-------------------------------------------------------------------------|




e|----------------------------------------------------------3--------------|
B|-----------3----------------------------3--------------------------------|
G|---0--------------0-------------0---------------0--------------------0---|
D|-------------------------------------------------------------------------|
A|--------------------------2----------------------------------------------|
E|-------------------------------------------------------------------------|

e|-----------------------|
B|----3------------------|
G|-----------0-----------|
D|-----------------------|
A|-----------------------|
E|-----------------------|


e|-------------------------3-----------------------------------------------|
B|-----------3----------------------------3----------------------------3---|
G|-----0-----------0--------------0--------------0-------------0-----------|
D|-------------------------------------------------------------------------|
A|-3----------------------------------------------------3------------------|
E|-------------------------------------------------------------------------|

e|---------3-----------------------------------------------------------3---|
B|------------------------3----------------------------3-------------------|
G|-0--------------0--------------0-------------0--------------0------------|
D|-------------------------------------------------------------------------|
A|--------------------------------------2----------------------------------|
E|-------------------------------------------------------------------------|


e|----------------------------------------------------------3--------------|
B|-----------3----------------------------3--------------------------------|
G|---0--------------0-------------0---------------0--------------------0---|
D|-------------------------------------------------------------------------|
A|--------------------------2----------------------------------------------|
E|-------------------------------------------------------------------------|

e|-----------------------|
B|----3------------------|
G|-----------0-----------|
D|-----------------------|
A|-----------------------|
E|-----------------------|


everyday i sit here waiting...
e|-------------------------3-----------------------------------------------|
B|-----------3----------------------------3----------------------------3---|
G|-----0-----------0--------------0--------------0-------------0-----------|
D|-------------------------------------------------------------------------|
A|-3----------------------------------------------------3------------------|
E|-------------------------------------------------------------------------|

e|---------3-----------------------------------------------------------3---|
B|------------------------3----------------------------3-------------------|
G|-0--------------0--------------0-------------0--------------0------------|
D|-------------------------------------------------------------------------|
A|--------------------------------------2----------------------------------|
E|-------------------------------------------------------------------------|


e|----------------------------------------------------------3--------------|
B|-----------3----------------------------3--------------------------------|
G|---0--------------0-------------0---------------0--------------------0---|
D|-------------------------------------------------------------------------|
A|--------------------------2----------------------------------------------|
E|-------------------------------------------------------------------------|

e|-----------------------|
B|----3------------------|
G|-----------0-----------|
D|-----------------------|
A|-----------------------|
E|-----------------------|


Everyday just seems so long...

e|-------------------------3-----------------------------------------------|
B|-----------3----------------------------3----------------------------3---|
G|-----0-----------0--------------0--------------0-------------0-----------|
D|-------------------------------------------------------------------------|
A|-3----------------------------------------------------3------------------|
E|-------------------------------------------------------------------------|

e|---------3-----------------------------------------------------------3---|
B|------------------------3----------------------------3-------------------|
G|-0--------------0--------------0-------------0--------------0------------|
D|-------------------------------------------------------------------------|
A|--------------------------------------2----------------------------------|
E|-------------------------------------------------------------------------|


e|----------------------------------------------------------3--------------|
B|-----------3----------------------------3--------------------------------|
G|---0--------------0-------------0---------------0--------------------0---|
D|-------------------------------------------------------------------------|
A|--------------------------0----------------------------------------------|
E|-------------------------------------------------------------------------|

e|-----------------------|
B|----3------------------|
G|-----------0-----------|
D|-----------------------|
A|-----------------------|
E|-----------------------|

And now I've had enough of all...
e|-------------------------3-----------------------------------------------|
B|-----------3----------------------------3----------------------------3---|
G|-----0-----------0--------------0--------------0-------------0-----------|
D|-------------------------------------------------------------------------|
A|-3----------------------------------------------------3------------------|
E|-------------------------------------------------------------------------|

                                      the hating...

e|---------3-----------------------------------------------------------3---|
B|------------------------3----------------------------3-------------------|
G|-0--------------0--------------0-------------0--------------0------------|
D|-------------------------------------------------------------------------|
A|--------------------------------------2----------------------------------|
E|-------------------------------------------------------------------------|


e|----------------------------------------------------------3--------------|
B|-----------3----------------------------3--------------------------------|
G|---0--------------0-------------0---------------0--------------------0---|
D|-------------------------------------------------------------------------|
A|--------------------------2----------------------------------------------|
E|-------------------------------------------------------------------------|


                  Do we even care...

e|-------------------------------------------------------------------------|
B|---3-------------------------------3------------------------------3------|
G|----------0--------------0-----------------0---------------0-----------0-|
D|-------------------------------------------------------------------------|
A|-----------------3---------------------------------2---------------------|
E|-------------------------------------------------------------------------|


    it's so unfair...
e|-------------------------------------|
B|----------------------3--------------|
G|------------0-----------------0------|
D|-------------------------------------|
A|----0--------------------------------|
E|-------------------------------------|


Any day it'll all be over...

e|-------------------------3-----------------------------------------------|
B|-----------3----------------------------3----------------------------3---|
G|-----0-----------0--------------0--------------0-------------0-----------|
D|-------------------------------------------------------------------------|
A|-3----------------------------------------------------3------------------|
E|-------------------------------------------------------------------------|

e|---------3-----------------------------------------------------------3---|
B|------------------------3----------------------------3-------------------|
G|-0--------------0--------------0-------------0--------------0------------|
D|-------------------------------------------------------------------------|
A|--------------------------------------2----------------------------------|
E|-------------------------------------------------------------------------|


e|----------------------------------------------------------3--------------|
B|-----------3----------------------------3--------------------------------|
G|---0--------------0-------------0---------------0--------------------0---|
D|-------------------------------------------------------------------------|
A|--------------------------2----------------------------------------------|
E|-------------------------------------------------------------------------|

e|-----------------------|
B|----3------------------|
G|-----------0-----------|
D|-----------------------|
A|-----------------------|
E|-----------------------|


Any day there's nothing new...

e|-------------------------3-----------------------------------------------|
B|-----------3----------------------------3----------------------------3---|
G|-----0-----------0--------------0--------------0-------------0-----------|
D|-------------------------------------------------------------------------|
A|-3----------------------------------------------------3------------------|
E|-------------------------------------------------------------------------|

e|---------3-----------------------------------------------------------3---|
B|------------------------3----------------------------3-------------------|
G|-0--------------0--------------0-------------0--------------0------------|
D|-------------------------------------------------------------------------|
A|--------------------------------------2----------------------------------|
E|-------------------------------------------------------------------------|


e|----------------------------------------------------------3--------------|
B|-----------3----------------------------3--------------------------------|
G|---0--------------0-------------0---------------0--------------------0---|
D|-------------------------------------------------------------------------|
A|--------------------------0----------------------------------------------|
E|-------------------------------------------------------------------------|
[ Tab from: http://www.guitartabs.cc/tabs/t/the_veronicas/heavily_broken_tab.html ]
e|-----------------------|
B|----3------------------|
G|-----------0-----------|
D|-----------------------|
A|-----------------------|
E|-----------------------|


And now I just try to find some hope...

e|-------------------------3-----------------------------------------------|
B|-----------3----------------------------3----------------------------3---|
G|-----0-----------0--------------0--------------0-------------0-----------|
D|-------------------------------------------------------------------------|
A|-3----------------------------------------------------3------------------|
E|-------------------------------------------------------------------------|


                          To try and hold onto...

e|---------3-----------------------------------------------------------3---|
B|------------------------3----------------------------3-------------------|
G|-0--------------0--------------0-------------0--------------0------------|
D|-------------------------------------------------------------------------|
A|--------------------------------------2----------------------------------|
E|-------------------------------------------------------------------------|


e|----------------------------------------------------------3--------------|
B|-----------3----------------------------3--------------------------------|
G|---0--------------0-------------0---------------0--------------------0---|
D|-------------------------------------------------------------------------|
A|--------------------------2----------------------------------------------|
E|-------------------------------------------------------------------------|

            And it starts again...

e|-------------------------------------------------------------------------|
B|---3-------------------------------3------------------------------3------|
G|----------0--------------0-----------------0---------------0-----------0-|
D|-------------------------------------------------------------------------|
A|-----------------3---------------------------------2---------------------|
E|-------------------------------------------------------------------------|

It'll never end...

e|-------------------------------------|
B|----------------------3--------------|
G|------------0-----------------0------|
D|-------------------------------------|
A|----0--------------------------------|
E|-------------------------------------|


Chorus
             Cadd9  Em7
I'm heavily broken
      Cadd9              D
And I don't know what to do
                   Cadd9  Em7
It just seems like I'm choking
      Cadd9         D
And I can't even move
              Cadd9           Em7
When there's nothing left to say
Cadd9         D
What can you do
    Cadd9     Em7
I'm heavily broken
      D
And there's nothing I can do

Almost giving up on trying...

e|-------------------------3-----------------------------------------------|
B|-----------3----------------------------3----------------------------3---|
G|-----0-----------0--------------0--------------0-------------0-----------|
D|-------------------------------------------------------------------------|
A|-3----------------------------------------------------3------------------|
E|-------------------------------------------------------------------------|

e|---------3-----------------------------------------------------------3---|
B|------------------------3----------------------------3-------------------|
G|-0--------------0--------------0-------------0--------------0------------|
D|-------------------------------------------------------------------------|
A|--------------------------------------2----------------------------------|
E|-------------------------------------------------------------------------|


e|----------------------------------------------------------3--------------|
B|-----------3----------------------------3--------------------------------|
G|---0--------------0-------------0---------------0--------------------0---|
D|-------------------------------------------------------------------------|
A|--------------------------0----------------------------------------------|
E|-------------------------------------------------------------------------|

e|-----------------------|
B|----3------------------|
G|-----------0-----------|
D|-----------------------|
A|-----------------------|
E|-----------------------|


Almost giving up on trying...
e|-------------------------3-----------------------------------------------|
B|-----------3----------------------------3----------------------------3---|
G|-----0-----------0--------------0--------------0-------------0-----------|
D|-------------------------------------------------------------------------|
A|-3----------------------------------------------------3------------------|
E|-------------------------------------------------------------------------|

e|---------3-----------------------------------------------------------3---|
B|------------------------3----------------------------3-------------------|
G|-0--------------0--------------0-------------0--------------0------------|
D|-------------------------------------------------------------------------|
A|--------------------------------------2----------------------------------|
E|-------------------------------------------------------------------------|




e|----------------------------------------------------------3--------------|
B|-----------3----------------------------3--------------------------------|
G|---0--------------0-------------0---------------0--------------------0---|
D|-------------------------------------------------------------------------|
A|--------------------------2----------------------------------------------|
E|-------------------------------------------------------------------------|

e|-----------------------|
B|----3------------------|
G|-----------0-----------|
D|-----------------------|
A|-----------------------|
E|-----------------------|


Almost heading for a fall...
e|-------------------------3-----------------------------------------------|
B|-----------3----------------------------3----------------------------3---|
G|-----0-----------0--------------0--------------0-------------0-----------|
D|-------------------------------------------------------------------------|
A|-3----------------------------------------------------3------------------|
E|-------------------------------------------------------------------------|

e|---------3-----------------------------------------------------------3---|
B|------------------------3----------------------------3-------------------|
G|-0--------------0--------------0-------------0--------------0------------|
D|-------------------------------------------------------------------------|
A|--------------------------------------2----------------------------------|
E|-------------------------------------------------------------------------|


e|----------------------------------------------------------3--------------|
B|-----------3----------------------------3--------------------------------|
G|---0--------------0-------------0---------------0--------------------0---|
D|-------------------------------------------------------------------------|
A|--------------------------0----------------------------------------------|
E|-------------------------------------------------------------------------|

e|-----------------------|
B|----3------------------|
G|-----------0-----------|
D|-----------------------|
A|-----------------------|
E|-----------------------|


And now I'm starting screaming and...

e|-------------------------3-----------------------------------------------|
B|-----------3----------------------------3----------------------------3---|
G|-----0-----------0--------------0--------------0-------------0-----------|
D|-------------------------------------------------------------------------|
A|-3----------------------------------------------------3------------------|
E|-------------------------------------------------------------------------|


                                    I've gotta keep on fighting...

e|---------3-----------------------------------------------------------3---|
B|------------------------3----------------------------3-------------------|
G|-0--------------0--------------0-------------0--------------0------------|
D|-------------------------------------------------------------------------|
A|--------------------------------------2----------------------------------|
E|-------------------------------------------------------------------------|


e|----------------------------------------------------------3--------------|
B|-----------3----------------------------3--------------------------------|
G|---0--------------0-------------0---------------0--------------------0---|
D|-------------------------------------------------------------------------|
A|--------------------------2----------------------------------------------|
E|-------------------------------------------------------------------------|


            But then again...

e|-------------------------------------------------------------------------|
B|---3-------------------------------3------------------------------3------|
G|----------0--------------0-----------------0---------------0-----------0-|
D|-------------------------------------------------------------------------|
A|-----------------3---------------------------------2---------------------|
E|-------------------------------------------------------------------------|


It doesn't end...

e|-------------------------------------|
B|----------------------3--------------|
G|------------0-----------------0------|
D|-------------------------------------|
A|----0--------------------------------|
E|-------------------------------------|

Chorus
             Cadd9  Em7
I'm heavily broken
      Cadd9              D
And I don't know what to do
                   Cadd9  Em7
It just seems like I'm choking
      Cadd9         D
And I can't even move
              Cadd9           Em7
When there's nothing left to say
Cadd9         D
What can you do
    Cadd9     Em7
I'm heavily broken
      D
And there's nothing I can do

 Bridge
Em7               D
Feels like I'm drowning
       Em7	   D
I'm screaming for air
(Screaming for air)
Em7            D
Louder I'm crying
     	Cadd9       D
And you don't even care


Chorus
             Cadd9  Em7
I'm heavily broken
      Cadd9              D
And I don't know what to do
                   Cadd9  Em7
It just seems like I'm choking
      Cadd9         D
And I can't even move
              Cadd9           Em7
When there's nothing left to say
Cadd9         D
What can you do
    Cadd9     Em7   D
I'm heavily broken


        Cadd9  Em7
I'm heavily broken
      Cadd9              D
And I don't know what to do
                   Cadd9  Em7
It just seems like I'm choking
      Cadd9         D
And I can't even move
              Cadd9           Em7
When there's nothing left to say
Cadd9         D
What can you do
    Cadd9     Em7   D
I'm heavily broken

  Cadd9     Em7   D
I'm heavily broken

  Cadd9     Em7   D  Cadd9
I'm heavily broken