The Veronicas - 4ever Chords & Tabs

 

4ever Chords & Tabs

The Veronicas Chords & Tabs

Version: 4 Type: Tab

4ever Tab

   
----------------------------------------------------------------------------
			     4ever - The Veronicas
----------------------------------------------------------------------------
Tabbed by:Pete
Email: whatsername_223@hotmail.com

Tuning: Standard (eBGDAE)

Intro/verse

e|-------------------|        e|--------------------|
B|-------------------|    __  B|--------------------|
G|-----4-------------|\/ |__  G|-----4--------------|    Repeat this twice
D|-3-3---3-3-3-3-3-3-|/\  __| D|-3-3--3-4-4-4-------|    On the 2nd play 
A|-------------------|        A|--------------4-4-4-|    the first part 3
E|-------------------|        E|--------------------|    times 

Chorus
[ Tab from: http://www.guitartabs.cc/tabs/t/the_veronicas/4ever_tab_ver_4.html ]
e|-------------|       e|--------------------------
B|-------------|   __  B|--------------------------
G|----6-----8--|\/ __| G|----6--------6--6-----8---  listen for strumming 
D|-3--6--6--8--|/\|__  D|-8--6--3--3--6--6--6--8---  and chord changes
A|-3--4--6--6--|       A|-8--4--3--3--4--4--6--6---
E|-1-----4-----|       E|-6-----1--1--------4------


Intro (only play the first part 3 times 1st and 2nd time)


Chorus


Bridge


e|---------------------|
B|-------------4-------|
G|-6-----6-----5--6--6-| Listen for patterns and changes
D|-6--3--6--3--5--6--6-|
A|-4--3--4--3--3--4--4-|
E|----1-----1----------|

solo

e|---------------------|
B|---------------------|
G|---------------------|\/ |_|
D|---------------------|/\   |
A|-----2---------------|
E|-1-1---1-1-1-1-1-1-1-|

chorus x 2

end

| /  slide up
| \  slide down
| h  hammer-on
| p  pull-off
| ~  vibrato
| +  harmonic
| x  Mute note
============================================================================