The Veronicas - 4ever Chords & Tabs

 

4ever Chords & Tabs

The Veronicas Chords & Tabs

Version: 3 Type: Tab

4ever Tab

The Veronicas - 4ever
Guitar Tab

tuning - Capo on 1st (easier to play :P)

Distortion thru-out most of the song...


Intro:
e|------------------------------| x2
B|-------8----------------------|
G|-------9----------------------|
D|-9--9--9--9---9--9--9--9-9-9--|
A|-7--7-----7---7--7--7--7-7-7--|
E|-0--0-----0---0--0--0--0-0-0--|


Verse1:                           x3   Play this on the 4th time
e|-----------------------------------|-------------------------------------|
B|-------8---------------------------|--------8----------------------------|
G|-------9---------------------------|--------9-----10-10-10---------------|
D|-9--9--9--9---9--9--9--9-9-9-------|--9--9--9--9--10-10-10-10--10-10-10--|
A|-7--7-----7---7--7--7--7-7-7-------|--7--7-----7--8--8--8--10--10-10-10--|
E|-0--0-----0---0--0--0--0-0-0-------|--0--0-----0-----------8---8--8--8---|


(verse right b4 the chorus)
Verse2:                           x3   Play this on the 4th time
e|-----------------------------------|------------------------------------|
B|-------8---------------------------|--------8---------------------------|
G|-------9---------------------------|--------9-----10-10-10--------------|
D|-9--9--9--9---9--9--9--9-9-9-------|--9--9--9--9--10-10-10-10-x-x-x-----|
A|-7--7-----7---7--7--7--7-7-7-------|--7--7-----7--8--8--8--10-x-x-x-----|
E|-0--0-----0---0--0--0--0-0-0-------|--0--0-----0-----------8--x-x-x-----|


Chorus:
e|--------------------------|
B|--------------------------|
G|-9-x8--5-x8--------7-x8---|
D|-9-----5-----5-x8--7------|(2x)
A|-7-----3-----5-----5------|
E|-0-----------3------------|

e|------------------------------------|
B|------------------------------------|
G|-------5-x8--9-x8-9-x3-11-x3-12-x2--|
D|-7-x8--5-----9----9----11----12-----|
A|-7-----3-----7----7----9-----10-----|
E|-5----------------------------------|

e|-------------------------|
B|-------------------------|
G|-------5-x8--------7-x8--|
D|-7-x8--5-----5-x8--7-----|
A|-7-----3-----5-----5-----|
E|-5-----------3-----------|


Intro:
e|------------------------------|
B|-------8----------------------|
G|-------9----------------------|
D|-9--9--9--9---9--9--9--9-9-9--|
A|-7--7-----7---7--7--7--7-7-7--|
E|-0--0-----0---0--0--0--0-0-0--|


Verse3:                           x3   Play this on the 4th time
e|-----------------------------------|-------------------------------------|
B|-------8---------------------------|--------8----------------------------|
G|-------9---------------------------|--------9-----10-10-10---------------|
D|-9--9--9--9---9--9--9--9-9-9-------|--9--9--9--9--10-10-10-10--10-10-10--|
A|-7--7-----7---7--7--7--7-7-7-------|--7--7-----7--8--8--8--10--10-10-10--|
E|-0--0-----0---0--0--0--0-0-0-------|--0--0-----0-----------8---8--8--8---|

[ Tab from: http://www.guitartabs.cc/tabs/t/the_veronicas/4ever_tab_ver_3.html ]
(verse right b4 the chorus)
Verse4:                           x3   Play this on the 4th time
e|-----------------------------------|------------------------------------|
B|-------8---------------------------|--------8---------------------------|
G|-------9---------------------------|--------9-----10-10-10--------------|
D|-9--9--9--9---9--9--9--9-9-9-------|--9--9--9--9--10-10-10-10-x-x-x-----|
A|-7--7-----7---7--7--7--7-7-7-------|--7--7-----7--8--8--8--10-x-x-x-----|
E|-0--0-----0---0--0--0--0-0-0-------|--0--0-----0-----------8--x-x-x-----|


Chorus:
e|--------------------------|
B|--------------------------|
G|-9-x8--5-x8--------7-x8---|
D|-9-----5-----5-x8--7------|(2x)
A|-7-----3-----5-----5------|
E|-0-----------3------------|

e|------------------------------------|
B|------------------------------------|
G|-------5-x8--9-x8-9-x3-11-x3-12-x2--|
D|-7-x8--5-----9----9----11----12-----|
A|-7-----3-----7----7----9-----10-----|
E|-5----------------------------------|

e|-------------------------|
B|-------------------------|
G|-------5-x8--------7-x8--|
D|-7-x8--5-----5-x8--7-----|
A|-7-----3-----5-----5-----|
E|-5-----------3-----------|


Bridge:
e|---------------------------| x2
B|---------------------------|
G|-(5)-x-x-x-x-x-xx---9-x16--|
D|-(5)-x-x-x-x-x-xx---9------|
A|-(3)-x-x-x-x-x-xx---7------|
E|---------------------------|

e|--------------------------------------|
B|--------------------------------------|
G|-4-x16--5-x16--5---5---5---5---5-5-9--|
D|-4------5------5---5---5---5---5-5-9--|
A|-2------3------3---3---3---3---3-3-7--|
E|--------------------------------------|


Intro:
e|------------------------------| x3
B|-------8----------------------|
G|-------9----------------------|
D|-9--9--9--9---9--9--9--9-9-9--|
A|-7--7-----7---7--7--7--7-7-7--|
E|-0--0-----0---0--0--0--0-0-0--|

e|--------------------------------|
B|-------8------------------------|
G|-------9------------------------|
D|-9--9--9--9---9--9--9-x-x-x-x---|
A|-7--7-----7---7--7--7-x-x-x-x---|
E|-0--0-----0---0--0--0-x-x-x-x---|


Last Chorus: (X2)
e|--------------------------|
B|--------------------------|
G|-9-x8--5-x8--------7-x8---|
D|-9-----5-----5-x8--7------|(2x)
A|-7-----3-----5-----5------|
E|-0-----------3------------|

e|------------------------------------|
B|------------------------------------|
G|-------5-x8--9-x8-9-x3-11-x3-12-x2--|
D|-7-x8--5-----9----9----11----12-----|
A|-7-----3-----7----7----9-----10-----|
E|-5----------------------------------|

e|-------------------------|
B|-------------------------|
G|-------5-x8--------7-x8--|
D|-7-x8--5-----5-x8--7-----|
A|-7-----3-----5-----5-----|
E|-5-----------3-----------|

e|------|
B|------|
G|-(9)--|
D|-(9)--|
A|-(7)--|
E|-(0)--|




===================================================================================
this is my 1st tab..hope everything is in place and that its ok..timing-wise u gotta
listen to the song to get it right..but it shld be ok..any comments or if any part of
it is wrong or missing pls email me at
andrew_ho_18@hotmail.com