The Vanished - Favorite Scar Chords & Tabs

 

Favorite Scar Chords & Tabs

The Vanished Chords & Tabs

Version: 1 Type: Tab 0 ratings
1 star 2 stars 3 stars 4 stars 5 stars
comments

Favorite Scar Tab

   
http://www.thevanished.com/

Favorite Scar
Tune down 1/2 step, drop d [Db-Ab-Db-Gb-Bb-Eb]

p = pull off
b = bend
/ = slide

Intro:
Eb ||-------------------------------------------------------|
Bb ||---------------------------------3---------------------|
Gb ||--------7-----------7--------------4------2--3p2-------|
Db ||----------5-----------7-------4------4p0--2------2p0---|
Ab ||------5-----------5---------2-------------0------------|
Db ||----5-----------4--------------------------------------|

Verse:
Eb ||------------------------------------------------------------------------|
Bb ||------------7-----------7-----------7----------7-----------8---------8--|
Gb ||----7b8--5------7b8--5------7b8--5------7b8--5-----7b9--4-----7b8--4----|
Db ||------------------------------------------------------------------------|
Ab ||--0---------------------------------------------------------------------|
Db ||------------------------------------------------------------------------|

Verse continued:
Eb ||-------------------------------------------------------|
Bb ||----------5----------5---------------------------------|
Gb ||--7b8--5-----7b8--5-----7------------------------------|
Db ||-------------------------------------------------------|
Ab ||-------------------------------------------------------|
Db ||-------------------------------------------------------|
[ Tab from: http://www.guitartabs.cc/tabs/t/the_vanished/favorite_scar_tab.html ]
Pre-chorus: palm-mute; listen for strumming pattern and length
Eb ||-------------------------------------------------------|
Bb ||-------------------------------------------------------|
Gb ||-------------------------------------------------------|
Db ||--5---4---5---4/7--------------------------------------|
Ab ||--5---4---5---4/7--------------------------------------|
Db ||--5---4---5---4/7--------------------------------------|

Chorus: listen for strumming pattern and length
Eb ||----------2-------5------------------------------------|
Bb ||----------3---2---5------------------------------------|
Gb ||--7---7---4---2---2------------------------------------|
Db ||--5---7---4---2---2------------------------------------|
Ab ||--5---5---2---0---0------------------------------------|
Db ||--5---4------------------------------------------------|

Solo:
Eb ||---5---5--------5---5----------------------------------|
Bb ||--8-8-7-7-5----8-8-7-7-5--------10------10-------------|
Gb ||------------7-------------6-6-7-----6-7-----6-7-9------|
Db ||-------------------------------------------------------|
Ab ||-------------------------------------------------------|
Db ||-------------------------------------------------------|

Bridge:
Eb ||-------------------------------------------------------|
Bb ||--7-----8------7------5------8------7------5-----------|
Gb ||---7------7------7------6------7------7------6---------|
Db ||----9-------9------7------8------9------9------7-------|
Ab ||-------------------------------------------------------|
Db ||-------------------------------------------------------|

Outro:
Eb ||-------------------------------------------------------|
Bb ||-------------------------------------------------------|
Gb ||--12--11--9--------------------------------------------|
Db ||--12--12--7--------------------------------------------|
Ab ||--10--9---7--------------------------------------------|
Db ||-------------------------------------------------------|
Comments