The Vaccines - Bad Mood Chords & Tabs

 

Bad Mood Chords & Tabs

The Vaccines Chords & Tabs

Version: 2 Type: Tab 0 ratings
1 star 2 stars 3 stars 4 stars 5 stars
comments

Bad Mood Tab

-------------------------------------------------------------------------------
                             Bad Mood - The Vaccines
-------------------------------------------------------------------------------
Tabbed by: fetusrobot
E-mail: fetusrobot@gmail.com

Tuning: EADGBe

this is based on Freddie's youtube tutorial so if you want to look further just 
google Freddie Cowan Bad Mood Guitar Lesson or something idfk

-------------------------------------VERSE-------------------------------------

1 beat = ---- (4 spaces)

e|-----------------------------------------------------------------|
B|-----------------------------------------------------------------|
G|-7-7-7-7-7---4-------------------------------7\--2-2/4---4-------|
D|-----------------7-7/9---9-------4-4-4-4-4-----------------------|
A|-----------------7-7/9---9-------4-4-4-4-4-----------------------|
E|-----------------5-5/7---7-------2-2-2-2-2-----------------------|

e|-----------------------------------------------------------------|
B|-----------------------------------------------------------------|
G|-7-7-7-7-7---4-------------------------------7\--2-2/4---4-------|
D|-----------------7-7/9---9-------4-4-4-4-4-----------------------|
A|-----------------7-7/9---9-------4-4-4-4-4-----------------------|
E|-----------------5-5/7---7-------2-2-2-2-2-----------------------|

e|-----------------------------------------------------------------|
B|-----------------------------------------------------------------|
G|-7-7-7-7-7---4-------------------7-7-7-7-7---4-------------------|
D|-----------------7-7/9---9-----------------------7-7/9---9-------|
A|-----------------7-7/9---9-----------------------7-7/9---9-------|
E|-----------------5-5/7---7-----------------------5-5/7---7-------|

e|-----------------------------------------------------------------|
B|-----------------------------------------------------------------|
G|-7-7-7-7-7---4-------------------7-7-7-7-7---4-------------------|
D|-----------------7-7/9---9-----------------------7-7/9---9-------|
A|-----------------7-7/9---9-----------------------7-7/9---9-------|
E|-----------------5-5/7---7-----------------------5-5/7---7-------|

e|-----------------------------------------------------------------|
B|-----------------------------------------------------------------|
G|-7-7-7-7-7---4-------------------------------7\--2-2/4---4-------|
D|-----------------7-7/9---9-------4-4-4-4-4-----------------------|
A|-----------------7-7/9---9-------4-4-4-4-4-----------------------|
E|-----------------5-5/7---7-------2-2-2-2-2-----------------------|

-------------------------------------CHORUS------------------------------------

1 beat = ---- (4 spaces)

e|-----------------------------------------------------------------|
B|-9---------------9-------9-------7-------------------------------|
G|-11b-------------11b-----11b-----9b--------------9---------------|
D|-------------------------------------------------7---------------|
A|-----------------------------------------------------------------|
E|-----------------------------------------------------------------|
[ Tab from: http://www.guitartabs.cc/tabs/t/the_vaccines/bad_mood_tab_ver_2.html ]
1 beat = ------ (6 spaces)

e|--------------------------------------------------------------|
B|--------------------------------------------------------------|
G|-16-16-16-16-16-16-16-16-(for fucking ever)-16-14----14----16\|
D|--------------------------------------------------16----------|
A|--------------------------------------------------------------|
E|--------------------------------------------------------------|

repeat a couple times

------------------------------------BRIDGE-------------------------------------

1 beat = -------- (8 spaces)

e|---------------------------------------------------------|
B|---------------------------------------------------------|
G|-11--111111--111111--1111--------9---9-9-9---9-9-9---9-9-|
D|-9---9-9-9---9-9-9---9-9---------7---7-7-7---7-7-7---7-7-|
A|---------------------------------------------------------|
E|---------------------------------------------------------|

repeat a couple times

------------------------------------SOLO---------------------------------------

1 beat = ---- (4 beats)


e|-----------------------------------------------------------------|
B|-16b-------------------------------------------------------------|
G|---------------------------------14------------------------------|
D|-----------------------------------------------------------------|
A|-----------------------------------------------------------------|
E|-----------------------------------------------------------------|



e|-----------------------------------------------------------------|
B|-16b-------------------------------------------------------------|
G|---------------------------------12--------------10------9-------|
D|-----------------------------------------------------------------|
A|-----------------------------------------------------------------|
E|-----------------------------------------------------------------|



e|----------------------------------------------------------------------------|
B|-16br------------------------------------16br-------------------------------|
G|---------14------16------------------------------14------16-----------------|
D|-------------------------14------13------------------------------14------16-|
A|----------------------------------------------------------------------------|
E|----------------------------------------------------------------------------|



e|-----------------17------------------------------17------|
B|-////14----------------------14------14------14----------|
G|-------------16----------16--------------16--------------|
D|---------------------------------------------------------|
A|---------------------------------------------------------|
E|---------------------------------------------------------|



e|---------------------------------|
B|-----14----16--------------------|
G|-16------------------14----16\\\\|
D|-----------------16--------------|
A|---------------------------------|
E|---------------------------------|

play the first bar of the chorus then proceed to play the verse another couple of 
times. that's pretty much it thanks don't forget to comment rate and subscribe
Comments