The Used - The Taste Of Ink Chords & Tabs

 

The Taste Of Ink Chords & Tabs

The Used Chords & Tabs

Version: 3 Type: Tab 2 ratings
1 star 2 stars 3 stars 4 stars 5 stars
comments

The Taste Of Ink Tab

   
Band: The Used
Song: The Taste Of Ink
Album: The Used
Tabbed By: Jhonatan Castillo  yeko_182@hotmail.com		

Drop D Tuning:
low to high (D, A, D, G, B, e)


Verse: Clean
e--------------------------------------------------|
B--------------------------------------------------|
G--9-9-9-9-/-12-12-12-12-/-7-7-7-7-/11-11-11-11----|
D--9-9-9-9-/-12-12-12-12-/-7-7-7-7-/11-11-11-11----|
A--7-7-7-7-/-10-10-10-10-/-5-5-5-5-/-9--9--9--9----|
D--7-7-7-7-/-10-10-10-10-/-5-5-5-5-/-9--9--9--9----|

[ Tab from: http://www.guitartabs.cc/tabs/t/the_used/the_taste_of_ink_tab_ver_3.html ]
Chorus: Distortion (listen to CD for strum pattern)
e--------------------------------------------------------------------| 
B--------------------------------------------------------------------|
G--------------------------------------------------------------------|
A----5555555555--0000000000--77777777h9--10-10-10-10-10-10-xxxxxx----|
A----5555555555--0000000000--77777777h9--10-10-10-10-10-10-xxxxxx----|
D----5555555555--0000000000--77777777h9--10-10-10-10-10-10-xxxxxx----|

e-------------------------------------------------------------|
B-------------------------------------------------------------|
G-------------------------------------------------------------|
A----5555555555--0000000000--77777777h9--10-10-10-10-10-10----|
A----5555555555--0000000000--77777777h9--10-10-10-10-10-10----|
D----5555555555--0000000000--77777777h9--10-10-10-10-10-10----|



I DON'T KNOW THE BRIDGE SORRY!!! 
PLEASE E-MAIL ME IF YOU KNOW IT!!!   
yeko_182@hotmail.com


BREAKDOWN:

Verse x4
Chorus x1
Verse x2
Chorus x1 (keep playing 10's on the last time)
Bridge ?????
Verse x2
Chorus x1 (keep playing 10's on the last time)
Verse till fade


I'm not 100% this is correct but it sounds right!  If you have any comments or corrections, 
feel free to e-mail me at yeko_182@hotmail.com
Comments