The Used - The Taste Of Ink Chords & Tabs

 

The Taste Of Ink Chords & Tabs

The Used Chords & Tabs

Version: 2 Type: Tab 1 rating
1 star 2 stars 3 stars 4 stars 5 stars
comments

The Taste Of Ink Tab

   
im given  it to u first i cant log in to thta stupid webiste to post it 
 
Drop d d-A-d-G-B-E

this is the first parts chord progression, after the first time  he adds a lil distortion

D----10-5---   then end on this chord let it ring while the bass and drums build
A-7--10-5--5        D-5
D-5--12-7--7        A-5
G-7--------5        D-7
B-----------
E-----------
[ Tab from: http://www.guitartabs.cc/tabs/t/the_used/the_taste_of_ink_tab_ver_2.html ]
chorus stummed                    this is teh break down slow part(those are the notes i                
                                            dunno the chords he picks)
D-5-0-7-9---10-X---------------------------------------------
A-5-0-7-9---10-X---------------------------------------------
D-5-0-7-9---10-X---------------------------------------------
G-7-7-9-11--12-X--------------------------------12-14-9-17-16
B------------------------------------------------------------
E------------------------------------------------------------
and at the end he ends on the last note of the chorus and then plays the octive of the last finger
Comments