The Used - The Taste Of Ink Chords & Tabs

 

The Taste Of Ink Chords & Tabs

The Used Chords & Tabs

Version: 1 Type: Tab 1 rating
1 star 2 stars 3 stars 4 stars 5 stars
comments

The Taste Of Ink Tab

The Used - The Taste of Ink

The rythme is easy to figure out. here are the basic chords

100% accurate on verse and chorus  

Verse
Guitar
e|-------------------------------------------------
B|-------------------------------------------------
G|-7-7---------------------------------------------
D|-x-x--10---9----12-12---10----9-----7-7---5-5----
A|-7-7--7----7----10-10---10----10----5-5---5-5----
D|-7-7--7----7----10-10---10----10----5-5---5-5----
                                                                       
[ Tab from: http://www.guitartabs.cc/tabs/t/the_used/the_taste_of_ink_tab.html ]
Guitar
e|------------------------------------------------------|
B|------------------------------------------------------|
G|-7---7---7---7--------------------------------------------|
D|-10--10--10--10-----------------------------------------------|
A|-0---0---0---0--------------------------------------------|
D|-0---0---0---0--------------------------------------------|



Chorus 
e|------------------------------------------------------|
B|------------------------------------------------------|
G|-----7----9-----11---12-------------------------------------|
D|-5---0----7-----9----10-------------------------------------|
A|-5---0----7-----9----10-------------------------------------|
D|-5---0----7-----9----10-------------------------------------|


Bridge
e|------------------------------------------------------|
B|-8--7--10---13----------------------------------------------|
G|-7--7--9----12---------------------------------------------|
D|-5--5--7----10---------------------------------------------|
A|-5--5--7----10---------------------------------------------|
D|------------------------------------------------------|
Comments