The Used - Say Days Ago Chords & Tabs

 

Say Days Ago Chords & Tabs

The Used Chords & Tabs

Version: 2 Type: Tab 0 ratings
1 star 2 stars 3 stars 4 stars 5 stars
comments

Say Days Ago Tab

   
Say Days Ago by *The Used*

i wanted to play this song so bad cuz its awsum and i couldn't find the tabs
anywhere so i tabbed it myself :)
Standard Tuning
E A D G B E
use distortion!
Intro:

e-----------------
B-----------------
G-9-9-9-9---0---0-
D-9-9-9-9-2-2-2-2-
A-7-7-7-7-2-2-2-2-
E---------0-0-0-0-

Verse:
Still remember a year ago…

e-15-15-15-15-15-15-15-15-15-15--15---15-
B------------------------------12--12-12-

Pre Chorus:
I think of what it looks like…
[ Tab from: http://www.guitartabs.cc/tabs/t/the_used/say_days_ago_tab_ver_2.html ]
e---------------5-
B-----------------
G-------0-0-1/-2--
D-2-2-2-----------
A-----------------
E-----------------

Chorus:
Same strange said it’s strange cuz I feel the same…

E-7-10-7-8-7-8-10-0-0-0-repeat

Fill:

e-----------7-10-7-8-7-8-7-10-0-0-0-
B-----------------------------------
G-------9--9------------------------
D-2-2-2-9--9------------------------
A-2-2-2-7--7------------------------
E-0-0-0-----------------------------

that's about it. just play around with the solo and stuff. im not 100%
sure this is correct, ive only been playing for a few months and am
self taught but it sounds pretty good. just listen to the cd for strumming
and stuff.PEACE
~*LiNdSeY*~
Comments