The Used - Poetic Tragedy Chords & Tabs

 

Poetic Tragedy Chords & Tabs

The Used Chords & Tabs

Version: 1 Type: Tab 1 rating
1 star 2 stars 3 stars 4 stars 5 stars
comments

Poetic Tragedy Tab

Artist: The Used
Song: Poetic Tragedy
Tabbed by: Travis


Verse:
e-----------------------------------------
b--------7--------7-------7--------7----
g-----7--------7-------7--------7-------
d-7--------5----------------------------
a-------------------7--------5----------
E----------------------------------------

Mess around with these notes, it's not exactly the same every verse.
[ Tab from: http://www.guitartabs.cc/tabs/t/the_used/poetic_tragedy_tab.html ]
Chorus:
g-7---------------------------------------
d-7-----------5------------7------------2
a-5-----------5------------7------------2
E-------------3------------5------------0

play this twice.  This is played with distortion, let them ring.  Also you should slide up from the G chord to the A chord.

For the bridge where the lead singer sounds like a woman because of his slightly annoying voice, you play the same chords that are in the chorus.  Except for this part you don't let the notes ring, you strum them a few times.  You have to listen to the song to get the rhythm.  
	That's about it, any questions or comments, email me at TJBRUN178@aol.com
One more thing, the Used rock, even though that dude's voice gets too high at times.

Comments