The Trews - Yearning Chords & Tabs

 

Yearning Chords & Tabs

The Trews Chords & Tabs

Version: 1 Type: Tab

Yearning Tab

   
The TREWS (Den of Thieves)
Yearning 
tabbed by alcholbrewtalty  (jbatabyal@hotmail.com)
guitars: Colin and John Angus Macdonald
[ Tab from: http://www.guitartabs.cc/tabs/t/the_trews/yearning_tab.html ]
Im positive this is right. I play this EADGBE slightly flat
and use a little palm mute. If you listen to the song youll get it.
     
E|--------------------|
B|--------------------|
G|-2-----4-----5-----7|
D|-0-0-0-0-0-0-0-0-0-0|
A|--------------------|
E|--------------------|

E|--------------------|
B|--------------------|
G|-----5-----4-----2-O|
D|-0-0-0-0-0-0-0-0-0-O|
A|--------------------|
E|--------------------|
   
Comments and corrections? send em. 
PS Go and check out this band out; best live show ive seen.