The Trews - Why Bother Chords & Tabs

 

Why Bother Chords & Tabs

The Trews Chords & Tabs

Version: 1 Type: Tab 0 ratings
1 star 2 stars 3 stars 4 stars 5 stars
comments

Why Bother Tab

   
----------------------------------------------------------------------------
			     WHY BOTHER - The Trews
----------------------------------------------------------------------------
Tabbed by: Stumaster182
Email: ??? 

Tuning: Standard Tuning

Intro and 1st Verse (listen for strumming)
e|------|
B|-10---|
G|--x---|
D|--7---|
A|------|
E|------|

Pre-Chorus
e|-------------------------|          |-------------------------------|
B|-2~--3~--5~--5/7---5---3-|          |-2~--3~--5--5--7\--------------|
G|-0~--0~--0~--0-0---0---0-|x1, then  |-0~--0~--0--0--0---------------|x1
D|-2~--4~--5~--5/7---5---4-|          |-2~--4~--5--5--7\--------------| 
A|-------------------------|          |-------------------------------|
E|-------------------------|          |-------------------------------|

1st Chorus         
e|------------(x4)-------|--------(x1)-------|----------(x2)-----|
B|-----------------------|-------------------|-------------------|
G|-2-2-7-----------------|-5-5-7-------------|-2-2-7-------------|
D|-2-2-7---------5h7-----|-5-5-7---------5h7-|-2-2-7---------5h7-|
A|-0-0-5-5p0-5/7---------|-3-3-5-5p0-5/7-----|-0-0-5-5p0-5/7-----|
E|-----------------------|-------------------|-------------------|

2nd Verse is the same as 1st verse

Bit before 2nd Chorus
e|------------|
B|------------|
G|-x-x--x-x-x-|
D|-x-x--x-x-x-|
A|-x-x--x-x-x-|
E|------------|

2nd Chorus         
e|------------(x4)-------|--------(x1)-------|----------(x2)-----|
B|-----------------------|-------------------|-------------------|
G|-2-2-7-----------------|-5-5-7-------------|-2-2-7-------------| x2
D|-2-2-7---------5h7-----|-5-5-7---------5h7-|-2-2-7---------5h7-|
A|-0-0-5-5p0-5/7---------|-3-3-5-5p0-5/7-----|-0-0-5-5p0-5/7-----|
E|-----------------------|-------------------|-------------------|
[ Tab from: http://www.guitartabs.cc/tabs/t/the_trews/why_bother_tab.html ]
Bit before Solo
e|------9\7---7-----5--|
B|---------------------|
G|--7/9-----7---7\6----| x1
D|---------------------|
A|---------------------|
E|---------------------|

Solo

Guitar 1
e|------------------------|----------------|
B|-2---3---5---7---5---3--|-2---3---5---7--|
G|-4b--5b--7b--9b--7b--5b-|-4b--5b--7b--9b-|
D|------------------------|----------------|
A|------------------------|----------------|
E|--------(x3)------------|------(x1)------|

Guitar 2
e|------------------------|---------------------------|
B|-2---3---5---7---5---3--|-5---7----8---10----8---7--|
G|-4b--5b--7b--9b--7b--5b-|-7b--9b--10b--12b--10b--9b-|
D|------------------------|---------------------------|
A|------------------------|---------------------------|
E|--------(x2)------------|------(x1)-----------------|

Guitar 2 (cont'd.)
e|----------------17---17--|
B|-14---15---17---20b--20b-|
G|-16b--17b--19b-----------|
D|-------------------------|
A|-------------------------|
E|----------(x1)-----------|


3rd Chorus
e|------------(x4)-------|--------(x1)-------|
B|-----------------------|-------------------|
G|-2-2-7-----------------|-5-5-7-------------| x2
D|-2-2-7---------5h7-----|-5-5-7---------5h7-|
A|-0-0-5-5p0-5/7---------|-3-3-5-5p0-5/7-----|
E|-----------------------|-------------------|

e|-------------------|
B|-------------------|
G|-2-2-7-------------| x8
D|-2-2-7---------5h7-|
A|-0-0-5-5p0-5/7-----|
E|-------------------|


Outro
e|---------|
B|---------|
G|-2-2-----|
D|-2-2-----|
A|-0-0-5b~-|
E|---------|


| /  slide up
| \  slide down
| h  hammer-on
| p  pull-off
| ~  let ring
| +  harmonic
| x  Mute note


ANd there you have it. Damn this took a long time figuring out. PLease rate!
============================================================================
Comments