The Trews - Tired Of Waiting Chords & Tabs

 

Tired Of Waiting Chords & Tabs

The Trews Chords & Tabs

Version: 1 Type: Bass Tab 0 ratings
1 star 2 stars 3 stars 4 stars 5 stars
comments

Tired Of Waiting Bass Tab

   
Title: Tired of Waiting
Artist: The Trews
Tabbed by:Darian
Email:scotty__13@hotmail.com
Tuning:Standard(EADG)

Intro

G|-----------------------------|
D|-----------------------------|
A|---------------0~------------|
E|-0~--------------------------|

Main Riff

G|--------------------------------------|
D|-0--22-----0-2------------------------|
A|-------0-2----------------------------|
E|------------------------3-55-3-5-4-3--|

Bridge
[ Tab from: http://www.guitartabs.cc/tabs/t/the_trews/tired_of_waiting_btab.html ]
G|-------------------------|
D|-------------------------|
A|----------------------2--|
E|-2--0--2--0--2--0--2-----|

Solo

G|-----------------------------------|
D|----------9-11-9--14--9--4--2-1-2--|
A|-2--7--9---------------------------|X2
E|-----------------------------------|

Outro

G|-------------------|
D|-------------------|
A|-7--2--2--0--------|
E|------------4b-5~--|

| /  slide up
| \  slide down
| h  hammer-on
| p  pull-off
| ~  vibrato
|(5) harmonic
| x  mute note
| b  bend note
=============================================================================
Comments