The Trews - Stray Chords & Tabs

 

Stray Chords & Tabs

The Trews Chords & Tabs

Version: 1 Type: Tab 0 ratings
1 star 2 stars 3 stars 4 stars 5 stars
comments

Stray Tab

Stray - The Trews
Standard Tuning
Tabbed by YoYoJoe

Intro/Chorus
|-0-0-2-0-|
|-0-2-2-2-|
|-1-2-3-2-|
|-2-2-4-2-|
|-2-0-4-0-|
|-0---2---|

Verse (2 Guitars)
|-0--0--------------0--0--------------|
|-0--0--------------2--2--------------|
|-1--1--------------2--2--------------|
|-2--2--------------2--2--------------|
|-2--2--------------0--0--------------|
|-0--0--------------------------------|
|
|------xxxx-12-x-12------xxxx-12-x-12-|
|------xxxx----x---------xxxx----x----|
|------xxxx----x---------xxxx----x----|
|-------------------------------------|
|-------------------------------------|
|-------------------------------------|

|-2--2--------------0--0--------------|
|-2--2--------------2--2--------------|
|-3--3--------------2--2--------------|
|-4--4--------------2--2--------------|
|-4--4--------------0--0--------------|
|-2--2--------------------------------|
|
|------xxxx-12-x-12------xxxx-12-x-12-|
|------xxxx----x---------xxxx----x----|
|------xxxx----x---------xxxx----x----|
|-------------------------------------|
|-------------------------------------|
|-------------------------------------|

Solo
|-------------------------------------------------------------------|
|-7fb----8fb----10fb----8fb----7fb-r-fb----8fb-r-fb----10fb-r-fb----|
|-----9~-----9~------9~-----9~----------9~----------9~-----------9~-|
|-------------------------------------------------------------------|
|-------------------------------------------------------------------|
|-------------------------------------------------------------------|

|---------------12-xx-12-12-xx-12-12-xx-12-xx-12-12-xx-12-12-xx-|
|-12-12p10-8~---12-xx-12-12-xx-12-12-xx-13-xx-13-13-xx-13-13-xx-|
|---------------------------------------------------------------|
|---------------------------------------------------------------|
|---------------------------------------------------------------|
|---------------------------------------------------------------|
[ Tab from: http://www.guitartabs.cc/tabs/t/the_trews/stray_tab.html ]
|-14-xx-14-14-xx-14-14-xx-16-xx-16-16-xx-16-16-xx-17-xx-|
|-15-xx-15-15-xx-15-15-xx-17-xx-17-17-xx-17-17-xx-17-xx-|
|-------------------------------------------------------|
|-------------------------------------------------------|
|-------------------------------------------------------|
|-------------------------------------------------------|

|-12-xx-12-12-xx-12-12-xx-12-xx-12-12-xx-12-12-xx-|
|-12-xx-12-12-xx-12-12-xx-13-xx-13-13-xx-13-13-xx-|
|-------------------------------------------------|
|-------------------------------------------------|
|-------------------------------------------------|
|-------------------------------------------------|

|-14-xx-14-14-xx-14-14-xx-16/21-21-21-21-21-21-21-21-21-21-|
|-15-xx-15-15-xx-15-15-xx-17-------------------------------|
|----------------------------------------------------------|
|----------------------------------------------------------|
|----------------------------------------------------------|
|----------------------------------------------------------|

Lead Riff
|-----------------------------------------------------------|
|-----------------------------------------------------------|
|-----------------------------------------------------------|
|-----------------------------------------------------------|
|---10-9-7----------------------------------------------7-9-|
|-0--------7-5-7-x-9-9\--xx-5-9-10-10\--xx-5-9-7-7\--xx-----|

Outro
|--------------------------------------------------------|
|--------------------------------------------------------|
|----------------------------------------------/9-9-9-9\-|
|------------------------------------/9-9-9-9\-----------|
|----------------------/10-10-10-10\---------------------|
|-4-5-7--/10-10-10-10\-----------------------------------|

|-------------------------------------------------------------------------|
|-/10-10-10-10\-/10-10-10-10\-/10-10-10-10\7/10-10-10-10\7/10\7/10\7/10\7-|
|-------------------------------------------------------------------------|
|-------------------------------------------------------------------------|
|-------------------------------------------------------------------------|
|-------------------------------------------------------------------------|

|----------------------------------0-|
|-/10-10-10-10-10-10-10-10-10-10\--0-|
|----------------------------------1-|
|----------------------------------2-|
|----------------------------------2-|
|----------------------------------0-|
Comments