The Trews - So She's Leaving Chords & Tabs

 

So She's Leaving Chords & Tabs

The Trews Chords & Tabs

Version: 1 Type: Tab 0 ratings
1 star 2 stars 3 stars 4 stars 5 stars
comments

So She's Leaving Tab

   
This File is the Authors own personal redition of how the song is played, you may use it 
your own private study. Tabbed by Matthew (putty)

So She’s Leaving - The Trews - Den of Thieves 2005

e---------------------------------------------|
b---------------------------------------------|
g---------------------------------------------|
D---------------------------------------------|
A------4-5--4h5s12-12----------4-5-4h5-4------|
E--3-5---------------------3-5------------5-5-|
[ Tab from: http://www.guitartabs.cc/tabs/t/the_trews/so_shes_leaving_tab.html ]
Verse – G-slide-A
Chorus – A/G/D/A
No Solo Sorry Just improvise it!
End Riff

e---------------------------------------------|
b---------------------------------------------|
g---------------------------------------------|
D---------------------------------------------|
A------4-5--4h5s12-12----------4-5-4h5-4------|
E--3-5---------------------3-5------------5-5-|

e--------------------------------------------|
b--------------------------------------------|
g------------------------------6h7-6h7-6-----|
D--------------------------5h6-----------7-7-|
A------4-5--4h5s12-12------------------------|
E--3-5---------------------------------------|
Comments