The Trews - Not Ready To Go Chords & Tabs

 

Not Ready To Go Chords & Tabs

The Trews Chords & Tabs

Version: 1 Type: Bass Tab 0 ratings
1 star 2 stars 3 stars 4 stars 5 stars
comments

Not Ready To Go Bass Tab

   
Title: Not Ready To go
Artist: The Trews
Tabbed by:Darian
Email:scotty__13@hotmail.com
Tuning:Standard(EADGBe)

Intro

G|---------------------------------------------|
D|---------------------------------------------|
A|-----------------------------------7-9-11-7--|X4
E|-7-7-9-7--7-7-7-9-7--7-7-7--7-9-11-----------|

Verse

G|-----------------------------------------------------------------------|
D|-------------------------------------------------------7-7--7---7-7--7-|
A|-7-7--7---7-7--7---7-7--7---7-7--7---7-7--7---7-7--7-------------------|X2
E|-----------------------------------------------------------------------|

Bridge

G|-----------------|
D|-----------------|
A|--------7-9-11-7-|X1
E|-7-9-11----------|

Chorus
[ Tab from: http://www.guitartabs.cc/tabs/t/the_trews/not_ready_to_go_btab.html ]
G|---------------------------------------------|
D|---------------------------------------------|
A|-----------------------------------7-9-11-7--|X4
E|-7-7-9-7--7-7-7-9-7--7-7-7--7-9-11-----------|

Interlude

G|------------------------------------------------------------------|
D|------------------------------------------------------------------|
A|------------------------------------------------------------------|X2
E|-3-3-3-3-3-3-3-3-5-5-5-5-5-5-5-5-3-3-3-3-3-3-3-3-5-5-5-5-5-5-5-5--|

Outro
G|-----------|
D|-----------|
A|-7\--------|
E|-----------|

The order is easy to figure out.

| /  slide up
| \  slide down
| h  hammer-on
| p  pull-off
| ~  vibrato
|(5) harmonic
| X  mute note
| b  bend note
=============================================================================
Comments